ISO-10303-21;
HEADER;
/* Generated by software containing ST-Developer
 * from STEP Tools, Inc. (www.steptools.com) 
 */

FILE_DESCRIPTION(
/* description */ ('Bracket for simalube 15-60ml'),
/* implementation_level */ '2;1');

FILE_NAME(
/* name */ 
'S:\\3. Leistungserbringung\\3.10 Produkteentwicklung\\3.10.05 Produkt
entwicklung\\CAD\\Konstruktion\\06 Lube\\6_21 Verkaufsteile\\Step\\290
_2087_Montagewinkel f\X\FCr simalube 15-60ml.stp',
/* time_stamp */ '2019-06-04T10:38:48+02:00',
/* author */ ('PascalZweiacker'),
/* organization */ (''),
/* preprocessor_version */ 'ST-DEVELOPER v17',
/* originating_system */ 'Autodesk Inventor 2018',
/* authorisation */ '');

FILE_SCHEMA (('AUTOMOTIVE_DESIGN { 1 0 10303 214 3 1 1 }'));
ENDSEC;

DATA;
#10=MECHANICAL_DESIGN_GEOMETRIC_PRESENTATION_REPRESENTATION('',(#334,#335,
#336,#337,#338,#339,#340,#341,#342,#343,#344,#345,#346,#347,#348,#349,#350,
#351,#352,#353,#354),#643);
#11=SHAPE_REPRESENTATION_RELATIONSHIP('SRR','None',#650,#12);
#12=ADVANCED_BREP_SHAPE_REPRESENTATION('',(#13),#642);
#13=MANIFOLD_SOLID_BREP('Volumenk\X\F6rper1',#375);
#14=FACE_BOUND('',#53,.T.);
#15=FACE_BOUND('',#59,.T.);
#16=FACE_BOUND('',#67,.T.);
#17=FACE_BOUND('',#73,.T.);
#18=PLANE('',#398);
#19=PLANE('',#399);
#20=PLANE('',#405);
#21=PLANE('',#409);
#22=PLANE('',#410);
#23=PLANE('',#416);
#24=PLANE('',#424);
#25=PLANE('',#426);
#26=PLANE('',#427);
#27=PLANE('',#428);
#28=PLANE('',#430);
#29=PLANE('',#432);
#30=FACE_OUTER_BOUND('',#50,.T.);
#31=FACE_OUTER_BOUND('',#51,.T.);
#32=FACE_OUTER_BOUND('',#52,.T.);
#33=FACE_OUTER_BOUND('',#54,.T.);
#34=FACE_OUTER_BOUND('',#55,.T.);
#35=FACE_OUTER_BOUND('',#56,.T.);
#36=FACE_OUTER_BOUND('',#57,.T.);
#37=FACE_OUTER_BOUND('',#58,.T.);
#38=FACE_OUTER_BOUND('',#60,.T.);
#39=FACE_OUTER_BOUND('',#61,.T.);
#40=FACE_OUTER_BOUND('',#62,.T.);
#41=FACE_OUTER_BOUND('',#63,.T.);
#42=FACE_OUTER_BOUND('',#64,.T.);
#43=FACE_OUTER_BOUND('',#65,.T.);
#44=FACE_OUTER_BOUND('',#66,.T.);
#45=FACE_OUTER_BOUND('',#68,.T.);
#46=FACE_OUTER_BOUND('',#69,.T.);
#47=FACE_OUTER_BOUND('',#70,.T.);
#48=FACE_OUTER_BOUND('',#71,.T.);
#49=FACE_OUTER_BOUND('',#72,.T.);
#50=EDGE_LOOP('',(#230,#231,#232,#233));
#51=EDGE_LOOP('',(#234,#235,#236,#237));
#52=EDGE_LOOP('',(#238,#239,#240,#241,#242,#243));
#53=EDGE_LOOP('',(#244,#245));
#54=EDGE_LOOP('',(#246,#247,#248,#249));
#55=EDGE_LOOP('',(#250,#251,#252,#253));
#56=EDGE_LOOP('',(#254,#255,#256,#257));
#57=EDGE_LOOP('',(#258,#259,#260,#261));
#58=EDGE_LOOP('',(#262,#263,#264,#265,#266,#267));
#59=EDGE_LOOP('',(#268,#269));
#60=EDGE_LOOP('',(#270,#271,#272,#273));
#61=EDGE_LOOP('',(#274,#275,#276,#277));
#62=EDGE_LOOP('',(#278,#279,#280,#281,#282));
#63=EDGE_LOOP('',(#283,#284,#285,#286,#287));
#64=EDGE_LOOP('',(#288,#289,#290,#291));
#65=EDGE_LOOP('',(#292,#293,#294,#295));
#66=EDGE_LOOP('',(#296,#297,#298,#299,#300,#301));
#67=EDGE_LOOP('',(#302));
#68=EDGE_LOOP('',(#303,#304,#305,#306));
#69=EDGE_LOOP('',(#307,#308,#309,#310));
#70=EDGE_LOOP('',(#311,#312,#313,#314));
#71=EDGE_LOOP('',(#315,#316,#317,#318));
#72=EDGE_LOOP('',(#319,#320,#321,#322,#323,#324));
#73=EDGE_LOOP('',(#325));
#74=LINE('',#547,#104);
#75=LINE('',#550,#105);
#76=LINE('',#553,#106);
#77=LINE('',#555,#107);
#78=LINE('',#556,#108);
#79=LINE('',#559,#109);
#80=LINE('',#563,#110);
#81=LINE('',#564,#111);
#82=LINE('',#571,#112);
#83=LINE('',#574,#113);
#84=LINE('',#577,#114);
#85=LINE('',#578,#115);
#86=LINE('',#584,#116);
#87=LINE('',#587,#117);
#88=LINE('',#590,#118);
#89=LINE('',#592,#119);
#90=LINE('',#593,#120);
#91=LINE('',#596,#121);
#92=LINE('',#598,#122);
#93=LINE('',#600,#123);
#94=LINE('',#608,#124);
#95=LINE('',#612,#125);
#96=LINE('',#613,#126);
#97=LINE('',#616,#127);
#98=LINE('',#620,#128);
#99=LINE('',#623,#129);
#100=LINE('',#626,#130);
#101=LINE('',#630,#131);
#102=LINE('',#632,#132);
#103=LINE('',#634,#133);
#104=VECTOR('',#439,10.);
#105=VECTOR('',#442,10.);
#106=VECTOR('',#445,10.);
#107=VECTOR('',#446,10.);
#108=VECTOR('',#447,10.);
#109=VECTOR('',#450,10.);
#110=VECTOR('',#453,10.);
#111=VECTOR('',#454,10.);
#112=VECTOR('',#461,10.);
#113=VECTOR('',#464,10.);
#114=VECTOR('',#467,10.);
#115=VECTOR('',#468,10.);
#116=VECTOR('',#473,10.);
#117=VECTOR('',#476,10.);
#118=VECTOR('',#479,10.);
#119=VECTOR('',#480,10.);
#120=VECTOR('',#481,10.);
#121=VECTOR('',#484,10.);
#122=VECTOR('',#485,10.);
#123=VECTOR('',#486,10.);
#124=VECTOR('',#495,10.);
#125=VECTOR('',#500,10.);
#126=VECTOR('',#501,10.);
#127=VECTOR('',#504,3.25);
#128=VECTOR('',#509,6.75);
#129=VECTOR('',#514,10.);
#130=VECTOR('',#517,10.);
#131=VECTOR('',#524,10.);
#132=VECTOR('',#527,10.);
#133=VECTOR('',#530,10.);
#134=CIRCLE('',#396,3.);
#135=CIRCLE('',#397,3.);
#136=CIRCLE('',#400,3.);
#137=CIRCLE('',#401,3.25);
#138=CIRCLE('',#402,3.25);
#139=CIRCLE('',#404,3.);
#140=CIRCLE('',#407,3.);
#141=CIRCLE('',#408,3.);
#142=CIRCLE('',#411,3.);
#143=CIRCLE('',#412,6.75);
#144=CIRCLE('',#413,6.75);
#145=CIRCLE('',#415,3.);
#146=CIRCLE('',#418,3.25);
#147=CIRCLE('',#420,6.75);
#148=CIRCLE('',#422,5.);
#149=CIRCLE('',#423,5.);
#150=CIRCLE('',#425,2.5);
#151=CIRCLE('',#429,2.5);
#152=VERTEX_POINT('',#543);
#153=VERTEX_POINT('',#544);
#154=VERTEX_POINT('',#546);
#155=VERTEX_POINT('',#548);
#156=VERTEX_POINT('',#552);
#157=VERTEX_POINT('',#554);
#158=VERTEX_POINT('',#558);
#159=VERTEX_POINT('',#560);
#160=VERTEX_POINT('',#562);
#161=VERTEX_POINT('',#565);
#162=VERTEX_POINT('',#566);
#163=VERTEX_POINT('',#570);
#164=VERTEX_POINT('',#572);
#165=VERTEX_POINT('',#576);
#166=VERTEX_POINT('',#580);
#167=VERTEX_POINT('',#581);
#168=VERTEX_POINT('',#583);
#169=VERTEX_POINT('',#585);
#170=VERTEX_POINT('',#589);
#171=VERTEX_POINT('',#591);
#172=VERTEX_POINT('',#595);
#173=VERTEX_POINT('',#597);
#174=VERTEX_POINT('',#599);
#175=VERTEX_POINT('',#602);
#176=VERTEX_POINT('',#603);
#177=VERTEX_POINT('',#607);
#178=VERTEX_POINT('',#611);
#179=VERTEX_POINT('',#615);
#180=VERTEX_POINT('',#619);
#181=VERTEX_POINT('',#624);
#182=EDGE_CURVE('',#152,#153,#134,.T.);
#183=EDGE_CURVE('',#153,#154,#74,.T.);
#184=EDGE_CURVE('',#154,#155,#135,.T.);
#185=EDGE_CURVE('',#155,#152,#75,.T.);
#186=EDGE_CURVE('',#153,#156,#76,.T.);
#187=EDGE_CURVE('',#156,#157,#77,.T.);
#188=EDGE_CURVE('',#157,#154,#78,.T.);
#189=EDGE_CURVE('',#158,#152,#79,.T.);
#190=EDGE_CURVE('',#159,#158,#136,.T.);
#191=EDGE_CURVE('',#160,#159,#80,.T.);
#192=EDGE_CURVE('',#160,#156,#81,.T.);
#193=EDGE_CURVE('',#161,#162,#137,.T.);
#194=EDGE_CURVE('',#162,#161,#138,.T.);
#195=EDGE_CURVE('',#158,#163,#82,.T.);
#196=EDGE_CURVE('',#163,#164,#139,.T.);
#197=EDGE_CURVE('',#164,#159,#83,.T.);
#198=EDGE_CURVE('',#165,#164,#84,.T.);
#199=EDGE_CURVE('',#165,#160,#85,.T.);
#200=EDGE_CURVE('',#166,#167,#140,.T.);
#201=EDGE_CURVE('',#167,#168,#86,.T.);
#202=EDGE_CURVE('',#168,#169,#141,.T.);
#203=EDGE_CURVE('',#169,#166,#87,.T.);
#204=EDGE_CURVE('',#167,#170,#88,.T.);
#205=EDGE_CURVE('',#171,#170,#89,.T.);
#206=EDGE_CURVE('',#171,#168,#90,.T.);
#207=EDGE_CURVE('',#172,#166,#91,.T.);
#208=EDGE_CURVE('',#173,#172,#92,.T.);
#209=EDGE_CURVE('',#174,#173,#93,.T.);
#210=EDGE_CURVE('',#170,#174,#142,.T.);
#211=EDGE_CURVE('',#175,#176,#143,.T.);
#212=EDGE_CURVE('',#176,#175,#144,.T.);
#213=EDGE_CURVE('',#174,#177,#94,.T.);
#214=EDGE_CURVE('',#177,#171,#145,.T.);
#215=EDGE_CURVE('',#178,#173,#95,.T.);
#216=EDGE_CURVE('',#177,#178,#96,.T.);
#217=EDGE_CURVE('',#162,#179,#97,.T.);
#218=EDGE_CURVE('',#179,#179,#146,.T.);
#219=EDGE_CURVE('',#176,#180,#98,.T.);
#220=EDGE_CURVE('',#180,#180,#147,.T.);
#221=EDGE_CURVE('',#157,#165,#99,.T.);
#222=EDGE_CURVE('',#181,#157,#148,.T.);
#223=EDGE_CURVE('',#181,#178,#100,.T.);
#224=EDGE_CURVE('',#178,#165,#149,.T.);
#225=EDGE_CURVE('',#156,#172,#150,.T.);
#226=EDGE_CURVE('',#172,#181,#101,.T.);
#227=EDGE_CURVE('',#163,#155,#102,.T.);
#228=EDGE_CURVE('',#169,#181,#103,.T.);
#229=EDGE_CURVE('',#173,#160,#151,.T.);
#230=ORIENTED_EDGE('',*,*,#182,.T.);
#231=ORIENTED_EDGE('',*,*,#183,.T.);
#232=ORIENTED_EDGE('',*,*,#184,.T.);
#233=ORIENTED_EDGE('',*,*,#185,.T.);
#234=ORIENTED_EDGE('',*,*,#183,.F.);
#235=ORIENTED_EDGE('',*,*,#186,.T.);
#236=ORIENTED_EDGE('',*,*,#187,.T.);
#237=ORIENTED_EDGE('',*,*,#188,.T.);
#238=ORIENTED_EDGE('',*,*,#182,.F.);
#239=ORIENTED_EDGE('',*,*,#189,.F.);
#240=ORIENTED_EDGE('',*,*,#190,.F.);
#241=ORIENTED_EDGE('',*,*,#191,.F.);
#242=ORIENTED_EDGE('',*,*,#192,.T.);
#243=ORIENTED_EDGE('',*,*,#186,.F.);
#244=ORIENTED_EDGE('',*,*,#193,.T.);
#245=ORIENTED_EDGE('',*,*,#194,.T.);
#246=ORIENTED_EDGE('',*,*,#190,.T.);
#247=ORIENTED_EDGE('',*,*,#195,.T.);
#248=ORIENTED_EDGE('',*,*,#196,.T.);
#249=ORIENTED_EDGE('',*,*,#197,.T.);
#250=ORIENTED_EDGE('',*,*,#197,.F.);
#251=ORIENTED_EDGE('',*,*,#198,.F.);
#252=ORIENTED_EDGE('',*,*,#199,.T.);
#253=ORIENTED_EDGE('',*,*,#191,.T.);
#254=ORIENTED_EDGE('',*,*,#200,.T.);
#255=ORIENTED_EDGE('',*,*,#201,.T.);
#256=ORIENTED_EDGE('',*,*,#202,.T.);
#257=ORIENTED_EDGE('',*,*,#203,.T.);
#258=ORIENTED_EDGE('',*,*,#201,.F.);
#259=ORIENTED_EDGE('',*,*,#204,.T.);
#260=ORIENTED_EDGE('',*,*,#205,.F.);
#261=ORIENTED_EDGE('',*,*,#206,.T.);
#262=ORIENTED_EDGE('',*,*,#200,.F.);
#263=ORIENTED_EDGE('',*,*,#207,.F.);
#264=ORIENTED_EDGE('',*,*,#208,.F.);
#265=ORIENTED_EDGE('',*,*,#209,.F.);
#266=ORIENTED_EDGE('',*,*,#210,.F.);
#267=ORIENTED_EDGE('',*,*,#204,.F.);
#268=ORIENTED_EDGE('',*,*,#211,.T.);
#269=ORIENTED_EDGE('',*,*,#212,.T.);
#270=ORIENTED_EDGE('',*,*,#210,.T.);
#271=ORIENTED_EDGE('',*,*,#213,.T.);
#272=ORIENTED_EDGE('',*,*,#214,.T.);
#273=ORIENTED_EDGE('',*,*,#205,.T.);
#274=ORIENTED_EDGE('',*,*,#213,.F.);
#275=ORIENTED_EDGE('',*,*,#209,.T.);
#276=ORIENTED_EDGE('',*,*,#215,.F.);
#277=ORIENTED_EDGE('',*,*,#216,.F.);
#278=ORIENTED_EDGE('',*,*,#193,.F.);
#279=ORIENTED_EDGE('',*,*,#194,.F.);
#280=ORIENTED_EDGE('',*,*,#217,.T.);
#281=ORIENTED_EDGE('',*,*,#218,.F.);
#282=ORIENTED_EDGE('',*,*,#217,.F.);
#283=ORIENTED_EDGE('',*,*,#211,.F.);
#284=ORIENTED_EDGE('',*,*,#212,.F.);
#285=ORIENTED_EDGE('',*,*,#219,.T.);
#286=ORIENTED_EDGE('',*,*,#220,.F.);
#287=ORIENTED_EDGE('',*,*,#219,.F.);
#288=ORIENTED_EDGE('',*,*,#221,.F.);
#289=ORIENTED_EDGE('',*,*,#222,.F.);
#290=ORIENTED_EDGE('',*,*,#223,.T.);
#291=ORIENTED_EDGE('',*,*,#224,.T.);
#292=ORIENTED_EDGE('',*,*,#187,.F.);
#293=ORIENTED_EDGE('',*,*,#225,.T.);
#294=ORIENTED_EDGE('',*,*,#226,.T.);
#295=ORIENTED_EDGE('',*,*,#222,.T.);
#296=ORIENTED_EDGE('',*,*,#184,.F.);
#297=ORIENTED_EDGE('',*,*,#188,.F.);
#298=ORIENTED_EDGE('',*,*,#221,.T.);
#299=ORIENTED_EDGE('',*,*,#198,.T.);
#300=ORIENTED_EDGE('',*,*,#196,.F.);
#301=ORIENTED_EDGE('',*,*,#227,.T.);
#302=ORIENTED_EDGE('',*,*,#218,.T.);
#303=ORIENTED_EDGE('',*,*,#203,.F.);
#304=ORIENTED_EDGE('',*,*,#228,.T.);
#305=ORIENTED_EDGE('',*,*,#226,.F.);
#306=ORIENTED_EDGE('',*,*,#207,.T.);
#307=ORIENTED_EDGE('',*,*,#199,.F.);
#308=ORIENTED_EDGE('',*,*,#224,.F.);
#309=ORIENTED_EDGE('',*,*,#215,.T.);
#310=ORIENTED_EDGE('',*,*,#229,.T.);
#311=ORIENTED_EDGE('',*,*,#185,.F.);
#312=ORIENTED_EDGE('',*,*,#227,.F.);
#313=ORIENTED_EDGE('',*,*,#195,.F.);
#314=ORIENTED_EDGE('',*,*,#189,.T.);
#315=ORIENTED_EDGE('',*,*,#192,.F.);
#316=ORIENTED_EDGE('',*,*,#229,.F.);
#317=ORIENTED_EDGE('',*,*,#208,.T.);
#318=ORIENTED_EDGE('',*,*,#225,.F.);
#319=ORIENTED_EDGE('',*,*,#202,.F.);
#320=ORIENTED_EDGE('',*,*,#206,.F.);
#321=ORIENTED_EDGE('',*,*,#214,.F.);
#322=ORIENTED_EDGE('',*,*,#216,.T.);
#323=ORIENTED_EDGE('',*,*,#223,.F.);
#324=ORIENTED_EDGE('',*,*,#228,.F.);
#325=ORIENTED_EDGE('',*,*,#220,.T.);
#326=CYLINDRICAL_SURFACE('',#395,3.);
#327=CYLINDRICAL_SURFACE('',#403,3.);
#328=CYLINDRICAL_SURFACE('',#406,3.);
#329=CYLINDRICAL_SURFACE('',#414,3.);
#330=CYLINDRICAL_SURFACE('',#417,3.25);
#331=CYLINDRICAL_SURFACE('',#419,6.75);
#332=CYLINDRICAL_SURFACE('',#421,5.);
#333=CYLINDRICAL_SURFACE('',#431,2.5);
#334=STYLED_ITEM('',(#659),#355);
#335=STYLED_ITEM('',(#659),#356);
#336=STYLED_ITEM('',(#659),#357);
#337=STYLED_ITEM('',(#659),#358);
#338=STYLED_ITEM('',(#659),#359);
#339=STYLED_ITEM('',(#659),#360);
#340=STYLED_ITEM('',(#659),#361);
#341=STYLED_ITEM('',(#659),#362);
#342=STYLED_ITEM('',(#659),#363);
#343=STYLED_ITEM('',(#659),#364);
#344=STYLED_ITEM('',(#659),#365);
#345=STYLED_ITEM('',(#659),#366);
#346=STYLED_ITEM('',(#659),#367);
#347=STYLED_ITEM('',(#659),#368);
#348=STYLED_ITEM('',(#659),#369);
#349=STYLED_ITEM('',(#659),#370);
#350=STYLED_ITEM('',(#659),#371);
#351=STYLED_ITEM('',(#659),#372);
#352=STYLED_ITEM('',(#659),#373);
#353=STYLED_ITEM('',(#659),#374);
#354=STYLED_ITEM('',(#659),#13);
#355=ADVANCED_FACE('',(#30),#326,.T.);
#356=ADVANCED_FACE('',(#31),#18,.T.);
#357=ADVANCED_FACE('',(#32,#14),#19,.T.);
#358=ADVANCED_FACE('',(#33),#327,.T.);
#359=ADVANCED_FACE('',(#34),#20,.T.);
#360=ADVANCED_FACE('',(#35),#328,.T.);
#361=ADVANCED_FACE('',(#36),#21,.T.);
#362=ADVANCED_FACE('',(#37,#15),#22,.T.);
#363=ADVANCED_FACE('',(#38),#329,.T.);
#364=ADVANCED_FACE('',(#39),#23,.T.);
#365=ADVANCED_FACE('',(#40),#330,.F.);
#366=ADVANCED_FACE('',(#41),#331,.F.);
#367=ADVANCED_FACE('',(#42),#332,.T.);
#368=ADVANCED_FACE('',(#43),#24,.T.);
#369=ADVANCED_FACE('',(#44,#16),#25,.F.);
#370=ADVANCED_FACE('',(#45),#26,.T.);
#371=ADVANCED_FACE('',(#46),#27,.T.);
#372=ADVANCED_FACE('',(#47),#28,.T.);
#373=ADVANCED_FACE('',(#48),#333,.F.);
#374=ADVANCED_FACE('',(#49,#17),#29,.F.);
#375=CLOSED_SHELL('',(#355,#356,#357,#358,#359,#360,#361,#362,#363,#364,
#365,#366,#367,#368,#369,#370,#371,#372,#373,#374));
#376=DERIVED_UNIT_ELEMENT(#378,1.);
#377=DERIVED_UNIT_ELEMENT(#645,3.);
#378=(
MASS_UNIT()
NAMED_UNIT(*)
SI_UNIT($,.GRAM.)
);
#379=DERIVED_UNIT((#376,#377));
#380=MEASURE_REPRESENTATION_ITEM('density measure',
POSITIVE_RATIO_MEASURE(8.03),#379);
#381=PROPERTY_DEFINITION_REPRESENTATION(#386,#383);
#382=PROPERTY_DEFINITION_REPRESENTATION(#387,#384);
#383=REPRESENTATION('material name',(#385),#642);
#384=REPRESENTATION('density',(#380),#642);
#385=DESCRIPTIVE_REPRESENTATION_ITEM('1.4301 (X5CrNi18-10)',
'1.4301 (X5CrNi18-10)');
#386=PROPERTY_DEFINITION('material property','material name',#652);
#387=PROPERTY_DEFINITION('material property','density of part',#652);
#388=DATE_TIME_ROLE('creation_date');
#389=APPLIED_DATE_AND_TIME_ASSIGNMENT(#390,#388,(#652));
#390=DATE_AND_TIME(#391,#392);
#391=CALENDAR_DATE(2019,4,6);
#392=LOCAL_TIME(8,26,59.,#393);
#393=COORDINATED_UNIVERSAL_TIME_OFFSET(0,0,.BEHIND.);
#394=AXIS2_PLACEMENT_3D('placement',#541,#433,#434);
#395=AXIS2_PLACEMENT_3D('',#542,#435,#436);
#396=AXIS2_PLACEMENT_3D('',#545,#437,#438);
#397=AXIS2_PLACEMENT_3D('',#549,#440,#441);
#398=AXIS2_PLACEMENT_3D('',#551,#443,#444);
#399=AXIS2_PLACEMENT_3D('',#557,#448,#449);
#400=AXIS2_PLACEMENT_3D('',#561,#451,#452);
#401=AXIS2_PLACEMENT_3D('',#567,#455,#456);
#402=AXIS2_PLACEMENT_3D('',#568,#457,#458);
#403=AXIS2_PLACEMENT_3D('',#569,#459,#460);
#404=AXIS2_PLACEMENT_3D('',#573,#462,#463);
#405=AXIS2_PLACEMENT_3D('',#575,#465,#466);
#406=AXIS2_PLACEMENT_3D('',#579,#469,#470);
#407=AXIS2_PLACEMENT_3D('',#582,#471,#472);
#408=AXIS2_PLACEMENT_3D('',#586,#474,#475);
#409=AXIS2_PLACEMENT_3D('',#588,#477,#478);
#410=AXIS2_PLACEMENT_3D('',#594,#482,#483);
#411=AXIS2_PLACEMENT_3D('',#601,#487,#488);
#412=AXIS2_PLACEMENT_3D('',#604,#489,#490);
#413=AXIS2_PLACEMENT_3D('',#605,#491,#492);
#414=AXIS2_PLACEMENT_3D('',#606,#493,#494);
#415=AXIS2_PLACEMENT_3D('',#609,#496,#497);
#416=AXIS2_PLACEMENT_3D('',#610,#498,#499);
#417=AXIS2_PLACEMENT_3D('',#614,#502,#503);
#418=AXIS2_PLACEMENT_3D('',#617,#505,#506);
#419=AXIS2_PLACEMENT_3D('',#618,#507,#508);
#420=AXIS2_PLACEMENT_3D('',#621,#510,#511);
#421=AXIS2_PLACEMENT_3D('',#622,#512,#513);
#422=AXIS2_PLACEMENT_3D('',#625,#515,#516);
#423=AXIS2_PLACEMENT_3D('',#627,#518,#519);
#424=AXIS2_PLACEMENT_3D('',#628,#520,#521);
#425=AXIS2_PLACEMENT_3D('',#629,#522,#523);
#426=AXIS2_PLACEMENT_3D('',#631,#525,#526);
#427=AXIS2_PLACEMENT_3D('',#633,#528,#529);
#428=AXIS2_PLACEMENT_3D('',#635,#531,#532);
#429=AXIS2_PLACEMENT_3D('',#636,#533,#534);
#430=AXIS2_PLACEMENT_3D('',#637,#535,#536);
#431=AXIS2_PLACEMENT_3D('',#638,#537,#538);
#432=AXIS2_PLACEMENT_3D('',#639,#539,#540);
#433=DIRECTION('axis',(0.,0.,1.));
#434=DIRECTION('refdir',(1.,0.,0.));
#435=DIRECTION('center_axis',(0.,-1.60812264967664E-16,1.));
#436=DIRECTION('ref_axis',(0.707106781186547,0.707106781186548,1.13711443056603E-16));
#437=DIRECTION('center_axis',(-5.88321198103181E-20,1.39321812729461E-16,
-1.));
#438=DIRECTION('ref_axis',(0.707106781186547,0.707106781186548,1.13711443056603E-16));
#439=DIRECTION('',(0.,1.60812264967664E-16,-1.));
#440=DIRECTION('center_axis',(-5.88321198103181E-20,-1.39321812729461E-16,
1.));
#441=DIRECTION('ref_axis',(0.707106781186547,0.707106781186548,1.13711443056603E-16));
#442=DIRECTION('',(0.,-1.60812264967664E-16,1.));
#443=DIRECTION('center_axis',(1.,0.,0.));
#444=DIRECTION('ref_axis',(0.,1.,1.60812264967664E-16));
#445=DIRECTION('',(0.,-1.,-1.60812264967664E-16));
#446=DIRECTION('',(0.,1.60812264967664E-16,-1.));
#447=DIRECTION('',(0.,1.,1.60812264967664E-16));
#448=DIRECTION('center_axis',(5.88321198103181E-20,-1.39321812729461E-16,
1.));
#449=DIRECTION('ref_axis',(0.,-1.,-1.39321812729461E-16));
#450=DIRECTION('',(1.,0.,0.));
#451=DIRECTION('center_axis',(-5.88321198103181E-20,1.39321812729461E-16,
-1.));
#452=DIRECTION('ref_axis',(-0.707106781186547,0.707106781186548,1.13711443056603E-16));
#453=DIRECTION('',(0.,1.,1.60812264967664E-16));
#454=DIRECTION('',(1.,9.46092643954621E-36,-5.88321198103181E-20));
#455=DIRECTION('center_axis',(-5.88321198103181E-20,1.39321812729461E-16,
-1.));
#456=DIRECTION('ref_axis',(1.,8.19659757869038E-36,-5.88321198103181E-20));
#457=DIRECTION('center_axis',(-5.88321198103181E-20,1.39321812729461E-16,
-1.));
#458=DIRECTION('ref_axis',(1.,8.19659757869038E-36,-5.88321198103181E-20));
#459=DIRECTION('center_axis',(0.,-1.60812264967664E-16,1.));
#460=DIRECTION('ref_axis',(-0.707106781186547,0.707106781186548,1.13711443056603E-16));
#461=DIRECTION('',(0.,1.60812264967664E-16,-1.));
#462=DIRECTION('center_axis',(-5.88321198103181E-20,-1.39321812729461E-16,
1.));
#463=DIRECTION('ref_axis',(-0.707106781186547,0.707106781186548,1.13711443056603E-16));
#464=DIRECTION('',(0.,-1.60812264967664E-16,1.));
#465=DIRECTION('center_axis',(-1.,0.,0.));
#466=DIRECTION('ref_axis',(0.,-1.,-1.60812264967664E-16));
#467=DIRECTION('',(0.,1.,1.60812264967664E-16));
#468=DIRECTION('',(0.,-1.60812264967664E-16,1.));
#469=DIRECTION('center_axis',(0.,1.,0.));
#470=DIRECTION('ref_axis',(0.707106781186547,0.,0.707106781186548));
#471=DIRECTION('center_axis',(-5.88321198103181E-20,-1.,2.14904522382022E-17));
#472=DIRECTION('ref_axis',(0.707106781186547,0.,0.707106781186548));
#473=DIRECTION('',(0.,-1.,0.));
#474=DIRECTION('center_axis',(-5.88321198103181E-20,1.,-2.14904522382022E-17));
#475=DIRECTION('ref_axis',(0.707106781186547,0.,0.707106781186548));
#476=DIRECTION('',(0.,1.,0.));
#477=DIRECTION('center_axis',(0.,0.,1.));
#478=DIRECTION('ref_axis',(1.,0.,0.));
#479=DIRECTION('',(-1.,0.,0.));
#480=DIRECTION('',(0.,1.,0.));
#481=DIRECTION('',(1.,0.,0.));
#482=DIRECTION('center_axis',(5.88321198103181E-20,1.,-2.14904522382022E-17));
#483=DIRECTION('ref_axis',(0.,2.14904522382022E-17,1.));
#484=DIRECTION('',(0.,0.,1.));
#485=DIRECTION('',(1.,-5.88321198103181E-20,0.));
#486=DIRECTION('',(0.,0.,-1.));
#487=DIRECTION('center_axis',(-5.88321198103181E-20,-1.,2.14904522382022E-17));
#488=DIRECTION('ref_axis',(-0.707106781186547,0.,0.707106781186548));
#489=DIRECTION('center_axis',(-5.88321198103181E-20,-1.,2.14904522382022E-17));
#490=DIRECTION('ref_axis',(1.,-5.88321198103181E-20,1.26432886085583E-36));
#491=DIRECTION('center_axis',(-5.88321198103181E-20,-1.,2.14904522382022E-17));
#492=DIRECTION('ref_axis',(1.,-5.88321198103181E-20,1.26432886085583E-36));
#493=DIRECTION('center_axis',(0.,1.,0.));
#494=DIRECTION('ref_axis',(-0.707106781186547,0.,0.707106781186548));
#495=DIRECTION('',(0.,-1.,0.));
#496=DIRECTION('center_axis',(-5.88321198103181E-20,1.,-2.14904522382022E-17));
#497=DIRECTION('ref_axis',(-0.707106781186547,0.,0.707106781186548));
#498=DIRECTION('center_axis',(-1.,0.,0.));
#499=DIRECTION('ref_axis',(0.,0.,1.));
#500=DIRECTION('',(0.,1.,0.));
#501=DIRECTION('',(0.,0.,-1.));
#502=DIRECTION('center_axis',(5.88321198103181E-20,-1.39321812729461E-16,
1.));
#503=DIRECTION('ref_axis',(1.,8.19659757869038E-36,-5.88321198103181E-20));
#504=DIRECTION('',(-5.88321198103181E-20,1.39321812729461E-16,-1.));
#505=DIRECTION('center_axis',(-5.88321198103181E-20,-1.39321812729461E-16,
1.));
#506=DIRECTION('ref_axis',(1.,8.19659757869038E-36,-5.88321198103181E-20));
#507=DIRECTION('center_axis',(5.88321198103181E-20,1.,-2.14904522382022E-17));
#508=DIRECTION('ref_axis',(1.,-5.88321198103181E-20,1.26432886085583E-36));
#509=DIRECTION('',(-5.88321198103181E-20,-1.,2.14904522382022E-17));
#510=DIRECTION('center_axis',(-5.88321198103181E-20,1.,-2.14904522382022E-17));
#511=DIRECTION('ref_axis',(1.,-5.88321198103181E-20,1.26432886085583E-36));
#512=DIRECTION('center_axis',(1.,0.,0.));
#513=DIRECTION('ref_axis',(0.,-1.,0.));
#514=DIRECTION('',(-1.,9.46092643954621E-36,-5.88321198103181E-20));
#515=DIRECTION('center_axis',(1.,0.,0.));
#516=DIRECTION('ref_axis',(0.,-1.,0.));
#517=DIRECTION('',(-1.,-5.88321198103181E-20,0.));
#518=DIRECTION('center_axis',(1.,0.,0.));
#519=DIRECTION('ref_axis',(0.,-1.,0.));
#520=DIRECTION('center_axis',(1.,0.,0.));
#521=DIRECTION('ref_axis',(0.,0.,-1.));
#522=DIRECTION('center_axis',(-1.,0.,0.));
#523=DIRECTION('ref_axis',(0.,0.,-1.));
#524=DIRECTION('',(0.,-1.,0.));
#525=DIRECTION('center_axis',(-5.88321198103181E-20,-1.39321812729461E-16,
1.));
#526=DIRECTION('ref_axis',(0.,-1.,-1.39321812729461E-16));
#527=DIRECTION('',(1.,0.,0.));
#528=DIRECTION('center_axis',(1.,0.,0.));
#529=DIRECTION('ref_axis',(0.,0.,-1.));
#530=DIRECTION('',(0.,0.,-1.));
#531=DIRECTION('center_axis',(-1.,0.,0.));
#532=DIRECTION('ref_axis',(0.,0.,1.));
#533=DIRECTION('center_axis',(1.,0.,0.));
#534=DIRECTION('ref_axis',(0.,-1.,0.));
#535=DIRECTION('center_axis',(0.,1.,1.60812264967664E-16));
#536=DIRECTION('ref_axis',(-1.,0.,0.));
#537=DIRECTION('center_axis',(1.,0.,0.));
#538=DIRECTION('ref_axis',(0.,-1.,0.));
#539=DIRECTION('center_axis',(-5.88321198103181E-20,1.,-2.14904522382022E-17));
#540=DIRECTION('ref_axis',(0.,2.14904522382022E-17,1.));
#541=CARTESIAN_POINT('',(0.,0.,0.));
#542=CARTESIAN_POINT('Origin',(7.,17.,2.17383566726498E-15));
#543=CARTESIAN_POINT('',(7.,20.,2.5));
#544=CARTESIAN_POINT('',(10.,17.,2.5));
#545=CARTESIAN_POINT('Origin',(7.,17.,2.5));
#546=CARTESIAN_POINT('',(10.,17.,2.59016930149941E-15));
#547=CARTESIAN_POINT('',(10.,17.,2.17383566726498E-15));
#548=CARTESIAN_POINT('',(7.,20.,2.23993882793353E-15));
#549=CARTESIAN_POINT('Origin',(7.,17.,2.24087581703324E-15));
#550=CARTESIAN_POINT('',(7.,20.,2.65627246216797E-15));
#551=CARTESIAN_POINT('Origin',(10.,-0.654866776461628,-2.4894981252574E-16));
#552=CARTESIAN_POINT('',(10.,5.,2.5));
#553=CARTESIAN_POINT('',(10.,-26.6548667764616,2.5));
#554=CARTESIAN_POINT('',(10.,5.,6.60422121887445E-16));
#555=CARTESIAN_POINT('',(10.,5.,0.700000000000001));
#556=CARTESIAN_POINT('',(10.,-26.6548667764616,-4.430068701685E-15));
#557=CARTESIAN_POINT('Origin',(4.16333634234434E-16,-3.32743338823082,2.5));
#558=CARTESIAN_POINT('',(-7.,20.,2.5));
#559=CARTESIAN_POINT('',(-10.,20.,2.5));
#560=CARTESIAN_POINT('',(-10.,17.,2.5));
#561=CARTESIAN_POINT('Origin',(-7.,17.,2.5));
#562=CARTESIAN_POINT('',(-10.,5.,2.5));
#563=CARTESIAN_POINT('',(-10.,5.,2.5));
#564=CARTESIAN_POINT('',(2.08199174783113E-16,5.,2.5));
#565=CARTESIAN_POINT('',(3.25,12.5,2.5));
#566=CARTESIAN_POINT('',(-3.25,12.5,2.5));
#567=CARTESIAN_POINT('Origin',(0.,12.5,2.5));
#568=CARTESIAN_POINT('Origin',(0.,12.5,2.5));
#569=CARTESIAN_POINT('Origin',(-7.,17.,1.75750203303054E-15));
#570=CARTESIAN_POINT('',(-7.,20.,2.23993882793353E-15));
#571=CARTESIAN_POINT('',(-7.,20.,2.23993882793353E-15));
#572=CARTESIAN_POINT('',(-10.,17.,2.59016930149941E-15));
#573=CARTESIAN_POINT('Origin',(-7.,17.,2.24087581703324E-15));
#574=CARTESIAN_POINT('',(-10.,17.,1.75750203303054E-15));
#575=CARTESIAN_POINT('Origin',(-10.,5.,-1.72245146581422E-16));
#576=CARTESIAN_POINT('',(-10.,5.,6.60422121887445E-16));
#577=CARTESIAN_POINT('',(-10.,-26.6548667764616,-4.430068701685E-15));
#578=CARTESIAN_POINT('',(-10.,5.,0.7));
#579=CARTESIAN_POINT('Origin',(7.,0.,28.));
#580=CARTESIAN_POINT('',(10.,2.5,28.));
#581=CARTESIAN_POINT('',(7.,2.5,31.));
#582=CARTESIAN_POINT('Origin',(7.,2.5,28.));
#583=CARTESIAN_POINT('',(7.,0.,31.));
#584=CARTESIAN_POINT('',(7.,0.,31.));
#585=CARTESIAN_POINT('',(10.,0.,28.));
#586=CARTESIAN_POINT('Origin',(7.,-3.49293484466171E-16,28.));
#587=CARTESIAN_POINT('',(10.,0.,28.));
#588=CARTESIAN_POINT('Origin',(10.,0.,31.));
#589=CARTESIAN_POINT('',(-7.,2.5,31.));
#590=CARTESIAN_POINT('',(-10.,2.5,31.));
#591=CARTESIAN_POINT('',(-7.,0.,31.));
#592=CARTESIAN_POINT('',(-7.,-4.16333634234434E-16,31.));
#593=CARTESIAN_POINT('',(-10.,0.,31.));
#594=CARTESIAN_POINT('Origin',(4.16333634234434E-16,2.5,7.67256661176919));
#595=CARTESIAN_POINT('',(10.,2.5,5.));
#596=CARTESIAN_POINT('',(10.,2.5,31.));
#597=CARTESIAN_POINT('',(-10.,2.5,5.));
#598=CARTESIAN_POINT('',(2.08199174783113E-16,2.5,5.));
#599=CARTESIAN_POINT('',(-10.,2.5,28.));
#600=CARTESIAN_POINT('',(-10.,2.5,-0.654866776461626));
#601=CARTESIAN_POINT('Origin',(-7.,2.5,28.));
#602=CARTESIAN_POINT('',(6.75,2.5,21.));
#603=CARTESIAN_POINT('',(-6.75,2.5,21.));
#604=CARTESIAN_POINT('Origin',(0.,2.5,21.));
#605=CARTESIAN_POINT('Origin',(0.,2.5,21.));
#606=CARTESIAN_POINT('Origin',(-7.,-4.16333634234434E-16,28.));
#607=CARTESIAN_POINT('',(-10.,0.,28.));
#608=CARTESIAN_POINT('',(-10.,-4.16333634234434E-16,28.));
#609=CARTESIAN_POINT('Origin',(-7.,-3.49293484466171E-16,28.));
#610=CARTESIAN_POINT('Origin',(-10.,-8.32667268468867E-16,-0.654866776461626));
#611=CARTESIAN_POINT('',(-10.,0.,5.));
#612=CARTESIAN_POINT('',(-10.,0.7,5.));
#613=CARTESIAN_POINT('',(-10.,0.,31.));
#614=CARTESIAN_POINT('Origin',(-2.46884699079195E-18,12.5,-39.4642705167146));
#615=CARTESIAN_POINT('',(-3.25,12.5,1.91204389383478E-19));
#616=CARTESIAN_POINT('',(-3.25,12.5,-39.4642705167146));
#617=CARTESIAN_POINT('Origin',(-1.47080299525795E-19,12.5,0.));
#618=CARTESIAN_POINT('Origin',(-2.46884699079195E-18,-39.4642705167146,
21.));
#619=CARTESIAN_POINT('',(-6.75,3.97116808719665E-19,21.));
#620=CARTESIAN_POINT('',(-6.75,-39.4642705167146,21.));
#621=CARTESIAN_POINT('Origin',(-1.47080299525795E-19,0.,21.));
#622=CARTESIAN_POINT('Origin',(0.,5.,5.));
#623=CARTESIAN_POINT('',(6.94301215229395E-17,5.,1.05310609574867E-16));
#624=CARTESIAN_POINT('',(10.,0.,5.));
#625=CARTESIAN_POINT('Origin',(10.,5.,5.));
#626=CARTESIAN_POINT('',(6.94301215229395E-17,-4.16333634234434E-16,5.));
#627=CARTESIAN_POINT('Origin',(-10.,5.,5.));
#628=CARTESIAN_POINT('Origin',(10.,5.,2.5));
#629=CARTESIAN_POINT('Origin',(10.,5.,5.));
#630=CARTESIAN_POINT('',(10.,0.7,5.));
#631=CARTESIAN_POINT('Origin',(1.38777878078145E-16,-3.32743338823082,-1.02802478710747E-15));
#632=CARTESIAN_POINT('',(-10.,20.,2.23993882793353E-15));
#633=CARTESIAN_POINT('Origin',(10.,0.,5.));
#634=CARTESIAN_POINT('',(10.,0.,31.));
#635=CARTESIAN_POINT('Origin',(-10.,5.,5.55111512312578E-16));
#636=CARTESIAN_POINT('Origin',(-10.,5.,5.));
#637=CARTESIAN_POINT('Origin',(-10.,20.,2.23993882793353E-15));
#638=CARTESIAN_POINT('Origin',(0.,5.,5.));
#639=CARTESIAN_POINT('Origin',(1.38777878078145E-16,-3.49293484466171E-16,
7.67256661176919));
#640=UNCERTAINTY_MEASURE_WITH_UNIT(LENGTH_MEASURE(0.01),#644,
'DISTANCE_ACCURACY_VALUE',
'Maximum model space distance between geometric entities at asserted c
onnectivities');
#641=UNCERTAINTY_MEASURE_WITH_UNIT(LENGTH_MEASURE(0.01),#644,
'DISTANCE_ACCURACY_VALUE',
'Maximum model space distance between geometric entities at asserted c
onnectivities');
#642=(
GEOMETRIC_REPRESENTATION_CONTEXT(3)
GLOBAL_UNCERTAINTY_ASSIGNED_CONTEXT((#640))
GLOBAL_UNIT_ASSIGNED_CONTEXT((#644,#647,#646))
REPRESENTATION_CONTEXT('','3D')
);
#643=(
GEOMETRIC_REPRESENTATION_CONTEXT(3)
GLOBAL_UNCERTAINTY_ASSIGNED_CONTEXT((#641))
GLOBAL_UNIT_ASSIGNED_CONTEXT((#644,#647,#646))
REPRESENTATION_CONTEXT('','3D')
);
#644=(
LENGTH_UNIT()
NAMED_UNIT(*)
SI_UNIT(.MILLI.,.METRE.)
);
#645=(
LENGTH_UNIT()
NAMED_UNIT(*)
SI_UNIT(.CENTI.,.METRE.)
);
#646=(
NAMED_UNIT(*)
SI_UNIT($,.STERADIAN.)
SOLID_ANGLE_UNIT()
);
#647=(
NAMED_UNIT(*)
PLANE_ANGLE_UNIT()
SI_UNIT($,.RADIAN.)
);
#648=SHAPE_DEFINITION_REPRESENTATION(#649,#650);
#649=PRODUCT_DEFINITION_SHAPE('',$,#652);
#650=SHAPE_REPRESENTATION('',(#394),#642);
#651=PRODUCT_DEFINITION_CONTEXT('part definition',#656,'design');
#652=PRODUCT_DEFINITION('290.2087',
'290_2087_Montagewinkel f\X\FCr simalube 15-60ml',#653,#651);
#653=PRODUCT_DEFINITION_FORMATION('',$,#658);
#654=PRODUCT_RELATED_PRODUCT_CATEGORY(
'290_2087_Montagewinkel f\X\FCr simalube 15-60ml',
'290_2087_Montagewinkel f\X\FCr simalube 15-60ml',(#658));
#655=APPLICATION_PROTOCOL_DEFINITION('international standard',
'automotive_design',2009,#656);
#656=APPLICATION_CONTEXT(
'Core Data for Automotive Mechanical Design Process');
#657=PRODUCT_CONTEXT('part definition',#656,'mechanical');
#658=PRODUCT('290.2087','290_2087_Montagewinkel f\X\FCr simalube 15-60
ml','Bracket for simalube 15-60ml',(#657));
#659=PRESENTATION_STYLE_ASSIGNMENT((#660));
#660=SURFACE_STYLE_USAGE(.BOTH.,#661);
#661=SURFACE_SIDE_STYLE('',(#662));
#662=SURFACE_STYLE_FILL_AREA(#663);
#663=FILL_AREA_STYLE('',(#664));
#664=FILL_AREA_STYLE_COLOUR('',#665);
#665=COLOUR_RGB('',0.63921568627451,0.63921568627451,0.662745098039216);
ENDSEC;
END-ISO-10303-21;
