ISO-10303-21;
HEADER;
/****************************************************************
 * Generated by software with PDElib inside                    *
 * PDElib Version v51a, created Wed 07/06/2011                  *
 * ITI Transcendata (http://www.transcendata.com/)              *
 ****************************************************************/
FILE_DESCRIPTION((''),'2;1');
FILE_NAME('S:\\3. Leistungserbringung\\3.10 Produkteentwicklung\\3.10.05 Produktentwicklung\\CAD\\Konstruktion\\06 Lube\\6_21 Verkaufsteile\\Step\\2082_Befestigungswinkel_75mm.stp','2011-12-05T10:38:46',('pascalzweiacker'),(''),'Autodesk Inventor 2012','Autodesk Inventor 2012','');
FILE_SCHEMA(('AUTOMOTIVE_DESIGN { 1 0 10303 214 1 1 1 1 }'));
ENDSEC;
DATA;
#5=APPLICATION_CONTEXT('automotive design');
#6=APPLICATION_PROTOCOL_DEFINITION('International Standard','automotive_design',2001,#5);
#7=PRODUCT_CONTEXT('',#5,'mechanical');
#8=PRODUCT('2082_Befestigungswinkel_75mm','2082_Befestigungswinkel_75mm',$,(#7));
#9=PRODUCT_RELATED_PRODUCT_CATEGORY('part',$,(#8));
#10=PRODUCT_DEFINITION_FORMATION('',$,#8);
#11=PRODUCT_DEFINITION_CONTEXT('part definition',#5,'design');
#12=PRODUCT_DEFINITION('',$,#10,#11);
#18=(NAMED_UNIT(*)PLANE_ANGLE_UNIT()SI_UNIT($,.RADIAN.));
#19=DIMENSIONAL_EXPONENTS(0.0,0.0,0.0,0.0,0.0,0.0,0.0);
#20=PLANE_ANGLE_MEASURE_WITH_UNIT(PLANE_ANGLE_MEASURE(0.0174532925),#18);
#24=(CONVERSION_BASED_UNIT('DEGREE',#20)NAMED_UNIT(#19)PLANE_ANGLE_UNIT());
#28=(NAMED_UNIT(*)SI_UNIT($,.STERADIAN.)SOLID_ANGLE_UNIT());
#32=(LENGTH_UNIT()NAMED_UNIT(*)SI_UNIT(.MILLI.,.METRE.));
#34=UNCERTAINTY_MEASURE_WITH_UNIT(LENGTH_MEASURE(0.01),#32,'DISTANCE_ACCURACY_VALUE','');
#36=(GEOMETRIC_REPRESENTATION_CONTEXT(3)GLOBAL_UNCERTAINTY_ASSIGNED_CONTEXT((#34))GLOBAL_UNIT_ASSIGNED_CONTEXT((#24,#28,#32))REPRESENTATION_CONTEXT('None','None'));
#37=AXIS2_PLACEMENT_3D('',#38,#39,#40);
#38=CARTESIAN_POINT('',(0.0,0.0,0.0));
#39=DIRECTION('',(0.0,0.0,1.0));
#40=DIRECTION('',(1.0,0.0,0.0));
#41=SHAPE_REPRESENTATION('',(#37,#646),#36);
#42=PRODUCT_DEFINITION_SHAPE('','',#12);
#43=SHAPE_DEFINITION_REPRESENTATION(#42,#41);
#44=APPLICATION_CONTEXT('automotive design');
#45=APPLICATION_PROTOCOL_DEFINITION('International Standard','automotive_design',2001,#44);
#46=PRODUCT_CONTEXT('',#44,'mechanical');
#47=PRODUCT('0604131_Befestigungswinkel_75mm','0604131_Befestigungswinkel_75mm',$,(#46));
#48=PRODUCT_RELATED_PRODUCT_CATEGORY('part',$,(#47));
#49=PRODUCT_DEFINITION_FORMATION('',$,#47);
#50=PRODUCT_DEFINITION_CONTEXT('part definition',#44,'design');
#51=PRODUCT_DEFINITION('',$,#49,#50);
#57=(NAMED_UNIT(*)PLANE_ANGLE_UNIT()SI_UNIT($,.RADIAN.));
#58=DIMENSIONAL_EXPONENTS(0.0,0.0,0.0,0.0,0.0,0.0,0.0);
#59=PLANE_ANGLE_MEASURE_WITH_UNIT(PLANE_ANGLE_MEASURE(0.0174532925),#57);
#63=(CONVERSION_BASED_UNIT('DEGREE',#59)NAMED_UNIT(#58)PLANE_ANGLE_UNIT());
#67=(NAMED_UNIT(*)SI_UNIT($,.STERADIAN.)SOLID_ANGLE_UNIT());
#71=(LENGTH_UNIT()NAMED_UNIT(*)SI_UNIT(.MILLI.,.METRE.));
#73=UNCERTAINTY_MEASURE_WITH_UNIT(LENGTH_MEASURE(0.01),#71,'DISTANCE_ACCURACY_VALUE','');
#75=(GEOMETRIC_REPRESENTATION_CONTEXT(3)GLOBAL_UNCERTAINTY_ASSIGNED_CONTEXT((#73))GLOBAL_UNIT_ASSIGNED_CONTEXT((#63,#67,#71))REPRESENTATION_CONTEXT('None','None'));
#76=AXIS2_PLACEMENT_3D('',#77,#78,#79);
#77=CARTESIAN_POINT('',(0.0,0.0,0.0));
#78=DIRECTION('',(0.0,0.0,1.0));
#79=DIRECTION('',(1.0,0.0,0.0));
#80=SHAPE_REPRESENTATION('',(#76),#75);
#81=PRODUCT_DEFINITION_SHAPE('','',#51);
#82=SHAPE_DEFINITION_REPRESENTATION(#81,#80);
#88=(NAMED_UNIT(*)PLANE_ANGLE_UNIT()SI_UNIT($,.RADIAN.));
#89=DIMENSIONAL_EXPONENTS(0.0,0.0,0.0,0.0,0.0,0.0,0.0);
#90=PLANE_ANGLE_MEASURE_WITH_UNIT(PLANE_ANGLE_MEASURE(0.0174532925),#88);
#94=(CONVERSION_BASED_UNIT('DEGREE',#90)NAMED_UNIT(#89)PLANE_ANGLE_UNIT());
#98=(NAMED_UNIT(*)SI_UNIT($,.STERADIAN.)SOLID_ANGLE_UNIT());
#102=(LENGTH_UNIT()NAMED_UNIT(*)SI_UNIT(.MILLI.,.METRE.));
#104=UNCERTAINTY_MEASURE_WITH_UNIT(LENGTH_MEASURE(0.000001),#102,'DISTANCE_ACCURACY_VALUE','');
#106=(GEOMETRIC_REPRESENTATION_CONTEXT(3)GLOBAL_UNCERTAINTY_ASSIGNED_CONTEXT((#104))GLOBAL_UNIT_ASSIGNED_CONTEXT((#94,#98,#102))REPRESENTATION_CONTEXT('','3D'));
#107=CARTESIAN_POINT('',(-35.500000000000007,-26.500000000000007,18.0));
#108=DIRECTION('',(0.0,-1.0,6.123032E-017));
#109=DIRECTION('',(-0.707106781186548,0.0,0.707106781186547));
#110=AXIS2_PLACEMENT_3D('',#107,#108,#109);
#111=CYLINDRICAL_SURFACE('',#110,2.0);
#112=CARTESIAN_POINT('',(-37.500000000000007,-28.500000000000011,18.0));
#113=VERTEX_POINT('',#112);
#114=CARTESIAN_POINT('',(-35.500000000000007,-28.500000000000011,20.0));
#115=VERTEX_POINT('',#114);
#116=CARTESIAN_POINT('',(-35.500000000000007,-28.500000000000014,18.0));
#117=DIRECTION('',(0.0,1.0,0.0));
#118=DIRECTION('',(-0.707106781186548,0.0,0.707106781186547));
#119=AXIS2_PLACEMENT_3D('',#116,#117,#118);
#120=CIRCLE('',#119,2.0);
#121=EDGE_CURVE('',#113,#115,#120,.T.);
#122=ORIENTED_EDGE('',*,*,#121,.T.);
#123=CARTESIAN_POINT('',(-35.500000000000007,-26.500000000000007,20.0));
#124=VERTEX_POINT('',#123);
#125=CARTESIAN_POINT('',(-35.500000000000007,-28.500000000000007,20.0));
#126=DIRECTION('',(0.0,1.0,0.0));
#127=VECTOR('',#126,2.0);
#128=LINE('',#125,#127);
#129=EDGE_CURVE('',#115,#124,#128,.T.);
#130=ORIENTED_EDGE('',*,*,#129,.T.);
#131=CARTESIAN_POINT('',(-37.500000000000007,-26.500000000000007,18.0));
#132=VERTEX_POINT('',#131);
#133=CARTESIAN_POINT('',(-35.500000000000007,-26.500000000000014,18.0));
#134=DIRECTION('',(0.0,-1.0,0.0));
#135=DIRECTION('',(-0.707106781186548,0.0,0.707106781186547));
#136=AXIS2_PLACEMENT_3D('',#133,#134,#135);
#137=CIRCLE('',#136,2.0);
#138=EDGE_CURVE('',#124,#132,#137,.T.);
#139=ORIENTED_EDGE('',*,*,#138,.T.);
#140=CARTESIAN_POINT('',(-37.500000000000007,-26.500000000000007,18.0));
#141=DIRECTION('',(0.0,-1.0,0.0));
#142=VECTOR('',#141,2.0);
#143=LINE('',#140,#142);
#144=EDGE_CURVE('',#132,#113,#143,.T.);
#145=ORIENTED_EDGE('',*,*,#144,.T.);
#146=EDGE_LOOP('',(#122,#130,#139,#145));
#147=FACE_OUTER_BOUND('',#146,.T.);
#148=ADVANCED_FACE('',(#147),#111,.T.);
#149=CARTESIAN_POINT('',(-37.500000000000007,-26.500000000000007,0.0));
#150=DIRECTION('',(-1.0,0.0,0.0));
#151=DIRECTION('',(0.0,0.0,1.0));
#152=AXIS2_PLACEMENT_3D('',#149,#150,#151);
#153=PLANE('',#152);
#154=ORIENTED_EDGE('',*,*,#144,.F.);
#155=CARTESIAN_POINT('',(-37.500000000000007,-26.500000000000014,4.000000000000002));
#156=VERTEX_POINT('',#155);
#157=CARTESIAN_POINT('',(-37.500000000000007,-26.500000000000007,18.0));
#158=DIRECTION('',(0.0,0.0,-1.0));
#159=VECTOR('',#158,13.999999999999998);
#160=LINE('',#157,#159);
#161=EDGE_CURVE('',#132,#156,#160,.T.);
#162=ORIENTED_EDGE('',*,*,#161,.T.);
#163=CARTESIAN_POINT('',(-37.500000000000007,-24.500000000000007,2.0));
#164=VERTEX_POINT('',#163);
#165=CARTESIAN_POINT('',(-37.500000000000007,-24.500000000000021,4.0));
#166=DIRECTION('',(-1.0,0.0,0.0));
#167=DIRECTION('',(0.0,0.0,-1.0));
#168=AXIS2_PLACEMENT_3D('',#165,#166,#167);
#169=CIRCLE('',#168,2.0);
#170=EDGE_CURVE('',#164,#156,#169,.T.);
#171=ORIENTED_EDGE('',*,*,#170,.F.);
#172=CARTESIAN_POINT('',(-37.499999999999993,24.499999999999996,2.0));
#173=VERTEX_POINT('',#172);
#174=CARTESIAN_POINT('',(-37.500000000000007,-24.500000000000007,2.0));
#175=DIRECTION('',(0.0,1.0,0.0));
#176=VECTOR('',#175,49.000000000000007);
#177=LINE('',#174,#176);
#178=EDGE_CURVE('',#164,#173,#177,.T.);
#179=ORIENTED_EDGE('',*,*,#178,.T.);
#180=CARTESIAN_POINT('',(-37.499999999999993,24.499999999999996,0.0));
#181=VERTEX_POINT('',#180);
#182=CARTESIAN_POINT('',(-37.500000000000007,24.499999999999996,0.0));
#183=DIRECTION('',(0.0,0.0,1.0));
#184=VECTOR('',#183,2.0);
#185=LINE('',#182,#184);
#186=EDGE_CURVE('',#181,#173,#185,.T.);
#187=ORIENTED_EDGE('',*,*,#186,.F.);
#188=CARTESIAN_POINT('',(-37.500000000000007,-24.500000000000007,0.0));
#189=VERTEX_POINT('',#188);
#190=CARTESIAN_POINT('',(-37.499999999999993,24.5,0.0));
#191=DIRECTION('',(0.0,-1.0,0.0));
#192=VECTOR('',#191,49.000000000000007);
#193=LINE('',#190,#192);
#194=EDGE_CURVE('',#181,#189,#193,.T.);
#195=ORIENTED_EDGE('',*,*,#194,.T.);
#196=CARTESIAN_POINT('',(-37.500000000000007,-28.500000000000018,4.000000000000002));
#197=VERTEX_POINT('',#196);
#198=CARTESIAN_POINT('',(-37.500000000000007,-24.500000000000021,4.0));
#199=DIRECTION('',(-1.0,0.0,0.0));
#200=DIRECTION('',(0.0,0.0,-1.0));
#201=AXIS2_PLACEMENT_3D('',#198,#199,#200);
#202=CIRCLE('',#201,4.0);
#203=EDGE_CURVE('',#189,#197,#202,.T.);
#204=ORIENTED_EDGE('',*,*,#203,.T.);
#205=CARTESIAN_POINT('',(-37.500000000000007,-28.500000000000011,4.000000000000002));
#206=DIRECTION('',(0.0,0.0,1.0));
#207=VECTOR('',#206,13.999999999999998);
#208=LINE('',#205,#207);
#209=EDGE_CURVE('',#197,#113,#208,.T.);
#210=ORIENTED_EDGE('',*,*,#209,.T.);
#211=EDGE_LOOP('',(#154,#162,#171,#179,#187,#195,#204,#210));
#212=FACE_OUTER_BOUND('',#211,.T.);
#213=ADVANCED_FACE('',(#212),#153,.T.);
#214=CARTESIAN_POINT('',(-4.996004E-015,-26.500000000000014,10.0));
#215=DIRECTION('',(0.0,1.0,0.0));
#216=DIRECTION('',(0.0,0.0,1.0));
#217=AXIS2_PLACEMENT_3D('',#214,#215,#216);
#218=PLANE('',#217);
#219=ORIENTED_EDGE('',*,*,#138,.F.);
#220=CARTESIAN_POINT('',(35.499999999999986,-26.500000000000007,20.0));
#221=VERTEX_POINT('',#220);
#222=CARTESIAN_POINT('',(35.499999999999993,-26.500000000000007,20.0));
#223=DIRECTION('',(-1.0,0.0,0.0));
#224=VECTOR('',#223,71.0);
#225=LINE('',#222,#224);
#226=EDGE_CURVE('',#221,#124,#225,.T.);
#227=ORIENTED_EDGE('',*,*,#226,.F.);
#228=CARTESIAN_POINT('',(37.499999999999993,-26.500000000000007,18.0));
#229=VERTEX_POINT('',#228);
#230=CARTESIAN_POINT('',(35.499999999999986,-26.500000000000014,18.0));
#231=DIRECTION('',(0.0,-1.0,0.0));
#232=DIRECTION('',(0.707106781186548,0.0,0.707106781186547));
#233=AXIS2_PLACEMENT_3D('',#230,#231,#232);
#234=CIRCLE('',#233,2.0);
#235=EDGE_CURVE('',#229,#221,#234,.T.);
#236=ORIENTED_EDGE('',*,*,#235,.F.);
#237=CARTESIAN_POINT('',(37.499999999999993,-26.500000000000014,4.000000000000002));
#238=VERTEX_POINT('',#237);
#239=CARTESIAN_POINT('',(37.499999999999993,-26.500000000000007,4.000000000000002));
#240=DIRECTION('',(0.0,0.0,1.0));
#241=VECTOR('',#240,13.999999999999998);
#242=LINE('',#239,#241);
#243=EDGE_CURVE('',#238,#229,#242,.T.);
#244=ORIENTED_EDGE('',*,*,#243,.F.);
#245=CARTESIAN_POINT('',(37.499999999999993,-26.500000000000014,4.000000000000002));
#246=DIRECTION('',(-1.0,0.0,0.0));
#247=VECTOR('',#246,75.0);
#248=LINE('',#245,#247);
#249=EDGE_CURVE('',#238,#156,#248,.T.);
#250=ORIENTED_EDGE('',*,*,#249,.T.);
#251=ORIENTED_EDGE('',*,*,#161,.F.);
#252=EDGE_LOOP('',(#219,#227,#236,#244,#250,#251));
#253=FACE_OUTER_BOUND('',#252,.T.);
#254=CARTESIAN_POINT('',(-33.250000000000014,-26.500000000000004,12.0));
#255=VERTEX_POINT('',#254);
#256=CARTESIAN_POINT('',(-30.000000000000007,-26.500000000000004,12.0));
#257=DIRECTION('',(0.0,-1.0,0.0));
#258=DIRECTION('',(1.0,0.0,0.0));
#259=AXIS2_PLACEMENT_3D('',#256,#257,#258);
#260=CIRCLE('',#259,3.25);
#261=EDGE_CURVE('',#255,#255,#260,.T.);
#262=ORIENTED_EDGE('',*,*,#261,.T.);
#263=EDGE_LOOP('',(#262));
#264=FACE_BOUND('',#263,.T.);
#265=CARTESIAN_POINT('',(26.749999999999989,-26.500000000000004,12.0));
#266=VERTEX_POINT('',#265);
#267=CARTESIAN_POINT('',(29.999999999999993,-26.500000000000004,12.0));
#268=DIRECTION('',(0.0,-1.0,0.0));
#269=DIRECTION('',(1.0,0.0,0.0));
#270=AXIS2_PLACEMENT_3D('',#267,#268,#269);
#271=CIRCLE('',#270,3.25);
#272=EDGE_CURVE('',#266,#266,#271,.T.);
#273=ORIENTED_EDGE('',*,*,#272,.T.);
#274=EDGE_LOOP('',(#273));
#275=FACE_BOUND('',#274,.T.);
#276=ADVANCED_FACE('',(#253,#264,#275),#218,.T.);
#277=CARTESIAN_POINT('',(35.499999999999986,-26.500000000000007,18.0));
#278=DIRECTION('',(0.0,-1.0,6.123032E-017));
#279=DIRECTION('',(0.707106781186548,0.0,0.707106781186547));
#280=AXIS2_PLACEMENT_3D('',#277,#278,#279);
#281=CYLINDRICAL_SURFACE('',#280,2.0);
#282=CARTESIAN_POINT('',(35.499999999999986,-28.500000000000011,20.0));
#283=VERTEX_POINT('',#282);
#284=CARTESIAN_POINT('',(37.499999999999993,-28.500000000000011,18.0));
#285=VERTEX_POINT('',#284);
#286=CARTESIAN_POINT('',(35.499999999999986,-28.500000000000014,18.0));
#287=DIRECTION('',(0.0,1.0,0.0));
#288=DIRECTION('',(0.707106781186548,0.0,0.707106781186547));
#289=AXIS2_PLACEMENT_3D('',#286,#287,#288);
#290=CIRCLE('',#289,2.0);
#291=EDGE_CURVE('',#283,#285,#290,.T.);
#292=ORIENTED_EDGE('',*,*,#291,.T.);
#293=CARTESIAN_POINT('',(37.499999999999993,-28.500000000000007,18.0));
#294=DIRECTION('',(0.0,1.0,0.0));
#295=VECTOR('',#294,2.0);
#296=LINE('',#293,#295);
#297=EDGE_CURVE('',#285,#229,#296,.T.);
#298=ORIENTED_EDGE('',*,*,#297,.T.);
#299=ORIENTED_EDGE('',*,*,#235,.T.);
#300=CARTESIAN_POINT('',(35.499999999999986,-26.500000000000007,20.0));
#301=DIRECTION('',(0.0,-1.0,0.0));
#302=VECTOR('',#301,2.0);
#303=LINE('',#300,#302);
#304=EDGE_CURVE('',#221,#283,#303,.T.);
#305=ORIENTED_EDGE('',*,*,#304,.T.);
#306=EDGE_LOOP('',(#292,#298,#299,#305));
#307=FACE_OUTER_BOUND('',#306,.T.);
#308=ADVANCED_FACE('',(#307),#281,.T.);
#309=CARTESIAN_POINT('',(37.499999999999993,-26.500000000000007,20.0));
#310=DIRECTION('',(1.0,0.0,0.0));
#311=DIRECTION('',(0.0,0.0,-1.0));
#312=AXIS2_PLACEMENT_3D('',#309,#310,#311);
#313=PLANE('',#312);
#314=ORIENTED_EDGE('',*,*,#297,.F.);
#315=CARTESIAN_POINT('',(37.499999999999993,-28.500000000000018,4.000000000000002));
#316=VERTEX_POINT('',#315);
#317=CARTESIAN_POINT('',(37.499999999999993,-28.500000000000011,18.0));
#318=DIRECTION('',(0.0,0.0,-1.0));
#319=VECTOR('',#318,13.999999999999998);
#320=LINE('',#317,#319);
#321=EDGE_CURVE('',#285,#316,#320,.T.);
#322=ORIENTED_EDGE('',*,*,#321,.T.);
#323=CARTESIAN_POINT('',(37.499999999999993,-24.500000000000007,0.0));
#324=VERTEX_POINT('',#323);
#325=CARTESIAN_POINT('',(37.499999999999993,-24.500000000000021,4.0));
#326=DIRECTION('',(-1.0,0.0,0.0));
#327=DIRECTION('',(0.0,0.0,-1.0));
#328=AXIS2_PLACEMENT_3D('',#325,#326,#327);
#329=CIRCLE('',#328,4.0);
#330=EDGE_CURVE('',#324,#316,#329,.T.);
#331=ORIENTED_EDGE('',*,*,#330,.F.);
#332=CARTESIAN_POINT('',(37.499999999999993,24.500000000000007,0.0));
#333=VERTEX_POINT('',#332);
#334=CARTESIAN_POINT('',(37.499999999999993,-24.500000000000007,0.0));
#335=DIRECTION('',(0.0,1.0,0.0));
#336=VECTOR('',#335,49.000000000000014);
#337=LINE('',#334,#336);
#338=EDGE_CURVE('',#324,#333,#337,.T.);
#339=ORIENTED_EDGE('',*,*,#338,.T.);
#340=CARTESIAN_POINT('',(37.499999999999993,24.500000000000007,2.0));
#341=VERTEX_POINT('',#340);
#342=CARTESIAN_POINT('',(37.499999999999993,24.500000000000011,2.0));
#343=DIRECTION('',(0.0,0.0,-1.0));
#344=VECTOR('',#343,2.0);
#345=LINE('',#342,#344);
#346=EDGE_CURVE('',#341,#333,#345,.T.);
#347=ORIENTED_EDGE('',*,*,#346,.F.);
#348=CARTESIAN_POINT('',(37.499999999999993,-24.500000000000007,2.0));
#349=VERTEX_POINT('',#348);
#350=CARTESIAN_POINT('',(37.499999999999993,24.500000000000007,2.0));
#351=DIRECTION('',(0.0,-1.0,0.0));
#352=VECTOR('',#351,49.000000000000014);
#353=LINE('',#350,#352);
#354=EDGE_CURVE('',#341,#349,#353,.T.);
#355=ORIENTED_EDGE('',*,*,#354,.T.);
#356=CARTESIAN_POINT('',(37.499999999999993,-24.500000000000021,4.0));
#357=DIRECTION('',(-1.0,0.0,0.0));
#358=DIRECTION('',(0.0,0.0,-1.0));
#359=AXIS2_PLACEMENT_3D('',#356,#357,#358);
#360=CIRCLE('',#359,2.0);
#361=EDGE_CURVE('',#349,#238,#360,.T.);
#362=ORIENTED_EDGE('',*,*,#361,.T.);
#363=ORIENTED_EDGE('',*,*,#243,.T.);
#364=EDGE_LOOP('',(#314,#322,#331,#339,#347,#355,#362,#363));
#365=FACE_OUTER_BOUND('',#364,.T.);
#366=ADVANCED_FACE('',(#365),#313,.T.);
#367=CARTESIAN_POINT('',(-35.500000000000007,24.499999999999996,0.0));
#368=DIRECTION('',(0.0,0.0,1.0));
#369=DIRECTION('',(-0.707106781186548,0.707106781186548,0.0));
#370=AXIS2_PLACEMENT_3D('',#367,#368,#369);
#371=CYLINDRICAL_SURFACE('',#370,2.0);
#372=CARTESIAN_POINT('',(-35.500000000000007,26.5,2.0));
#373=VERTEX_POINT('',#372);
#374=CARTESIAN_POINT('',(-35.500000000000007,24.499999999999996,2.0));
#375=DIRECTION('',(0.0,0.0,-1.0));
#376=DIRECTION('',(-0.707106781186548,0.707106781186548,0.0));
#377=AXIS2_PLACEMENT_3D('',#374,#375,#376);
#378=CIRCLE('',#377,2.0);
#379=EDGE_CURVE('',#173,#373,#378,.T.);
#380=ORIENTED_EDGE('',*,*,#379,.T.);
#381=CARTESIAN_POINT('',(-35.500000000000007,26.5,0.0));
#382=VERTEX_POINT('',#381);
#383=CARTESIAN_POINT('',(-35.500000000000007,26.5,2.0));
#384=DIRECTION('',(0.0,0.0,-1.0));
#385=VECTOR('',#384,2.0);
#386=LINE('',#383,#385);
#387=EDGE_CURVE('',#373,#382,#386,.T.);
#388=ORIENTED_EDGE('',*,*,#387,.T.);
#389=CARTESIAN_POINT('',(-35.500000000000007,24.499999999999996,0.0));
#390=DIRECTION('',(0.0,0.0,1.0));
#391=DIRECTION('',(-0.707106781186548,0.707106781186548,0.0));
#392=AXIS2_PLACEMENT_3D('',#389,#390,#391);
#393=CIRCLE('',#392,2.0);
#394=EDGE_CURVE('',#382,#181,#393,.T.);
#395=ORIENTED_EDGE('',*,*,#394,.T.);
#396=ORIENTED_EDGE('',*,*,#186,.T.);
#397=EDGE_LOOP('',(#380,#388,#395,#396));
#398=FACE_OUTER_BOUND('',#397,.T.);
#399=ADVANCED_FACE('',(#398),#371,.T.);
#400=CARTESIAN_POINT('',(1.110223E-015,-5.658353E-015,0.0));
#401=DIRECTION('',(0.0,0.0,1.0));
#402=DIRECTION('',(1.0,0.0,0.0));
#403=AXIS2_PLACEMENT_3D('',#400,#401,#402);
#404=PLANE('',#403);
#405=ORIENTED_EDGE('',*,*,#394,.F.);
#406=CARTESIAN_POINT('',(35.499999999999986,26.500000000000014,0.0));
#407=VERTEX_POINT('',#406);
#408=CARTESIAN_POINT('',(35.499999999999993,26.500000000000014,0.0));
#409=DIRECTION('',(-1.0,0.0,0.0));
#410=VECTOR('',#409,71.0);
#411=LINE('',#408,#410);
#412=EDGE_CURVE('',#407,#382,#411,.T.);
#413=ORIENTED_EDGE('',*,*,#412,.F.);
#414=CARTESIAN_POINT('',(35.499999999999986,24.500000000000011,0.0));
#415=DIRECTION('',(0.0,0.0,1.0));
#416=DIRECTION('',(0.707106781186548,0.707106781186548,0.0));
#417=AXIS2_PLACEMENT_3D('',#414,#415,#416);
#418=CIRCLE('',#417,2.0);
#419=EDGE_CURVE('',#333,#407,#418,.T.);
#420=ORIENTED_EDGE('',*,*,#419,.F.);
#421=ORIENTED_EDGE('',*,*,#338,.F.);
#422=CARTESIAN_POINT('',(37.5,-24.500000000000007,0.0));
#423=DIRECTION('',(-1.0,0.0,0.0));
#424=VECTOR('',#423,75.0);
#425=LINE('',#422,#424);
#426=EDGE_CURVE('',#324,#189,#425,.T.);
#427=ORIENTED_EDGE('',*,*,#426,.T.);
#428=ORIENTED_EDGE('',*,*,#194,.F.);
#429=EDGE_LOOP('',(#405,#413,#420,#421,#427,#428));
#430=FACE_OUTER_BOUND('',#429,.T.);
#431=CARTESIAN_POINT('',(-11.000000000000005,11.499999999999982,0.0));
#432=VERTEX_POINT('',#431);
#433=CARTESIAN_POINT('',(-4.440892E-015,11.499999999999984,0.0));
#434=DIRECTION('',(0.0,0.0,1.0));
#435=DIRECTION('',(-1.0,0.0,0.0));
#436=AXIS2_PLACEMENT_3D('',#433,#434,#435);
#437=CIRCLE('',#436,11.0);
#438=EDGE_CURVE('',#432,#432,#437,.T.);
#439=ORIENTED_EDGE('',*,*,#438,.T.);
#440=EDGE_LOOP('',(#439));
#441=FACE_BOUND('',#440,.T.);
#442=ADVANCED_FACE('',(#430,#441),#404,.F.);
#443=CARTESIAN_POINT('',(-37.499999999999993,26.5,0.0));
#444=DIRECTION('',(0.0,1.0,0.0));
#445=DIRECTION('',(0.0,0.0,1.0));
#446=AXIS2_PLACEMENT_3D('',#443,#444,#445);
#447=PLANE('',#446);
#448=ORIENTED_EDGE('',*,*,#387,.F.);
#449=CARTESIAN_POINT('',(35.499999999999986,26.500000000000014,2.0));
#450=VERTEX_POINT('',#449);
#451=CARTESIAN_POINT('',(-35.500000000000007,26.5,2.0));
#452=DIRECTION('',(1.0,0.0,0.0));
#453=VECTOR('',#452,71.0);
#454=LINE('',#451,#453);
#455=EDGE_CURVE('',#373,#450,#454,.T.);
#456=ORIENTED_EDGE('',*,*,#455,.T.);
#457=CARTESIAN_POINT('',(35.499999999999986,26.500000000000014,0.0));
#458=DIRECTION('',(0.0,0.0,1.0));
#459=VECTOR('',#458,2.0);
#460=LINE('',#457,#459);
#461=EDGE_CURVE('',#407,#450,#460,.T.);
#462=ORIENTED_EDGE('',*,*,#461,.F.);
#463=ORIENTED_EDGE('',*,*,#412,.T.);
#464=EDGE_LOOP('',(#448,#456,#462,#463));
#465=FACE_OUTER_BOUND('',#464,.T.);
#466=ADVANCED_FACE('',(#465),#447,.T.);
#467=CARTESIAN_POINT('',(35.499999999999986,24.500000000000011,10.0));
#468=DIRECTION('',(0.0,0.0,1.0));
#469=DIRECTION('',(0.707106781186548,0.707106781186548,0.0));
#470=AXIS2_PLACEMENT_3D('',#467,#468,#469);
#471=CYLINDRICAL_SURFACE('',#470,2.0);
#472=CARTESIAN_POINT('',(35.499999999999986,24.500000000000011,2.0));
#473=DIRECTION('',(0.0,0.0,-1.0));
#474=DIRECTION('',(0.707106781186548,0.707106781186548,0.0));
#475=AXIS2_PLACEMENT_3D('',#472,#473,#474);
#476=CIRCLE('',#475,2.0);
#477=EDGE_CURVE('',#450,#341,#476,.T.);
#478=ORIENTED_EDGE('',*,*,#477,.T.);
#479=ORIENTED_EDGE('',*,*,#346,.T.);
#480=ORIENTED_EDGE('',*,*,#419,.T.);
#481=ORIENTED_EDGE('',*,*,#461,.T.);
#482=EDGE_LOOP('',(#478,#479,#480,#481));
#483=FACE_OUTER_BOUND('',#482,.T.);
#484=ADVANCED_FACE('',(#483),#471,.T.);
#485=CARTESIAN_POINT('',(-4.440892E-015,11.499999999999984,95.131487952202264));
#486=DIRECTION('',(0.0,0.0,-1.0));
#487=DIRECTION('',(-1.0,0.0,0.0));
#488=AXIS2_PLACEMENT_3D('',#485,#486,#487);
#489=CYLINDRICAL_SURFACE('',#488,11.0);
#490=CARTESIAN_POINT('',(10.999999999999996,11.499999999999984,1.999999999999993));
#491=VERTEX_POINT('',#490);
#492=CARTESIAN_POINT('',(-4.440892E-015,11.499999999999984,1.999999999999993));
#493=DIRECTION('',(0.0,0.0,-1.0));
#494=DIRECTION('',(-1.0,0.0,0.0));
#495=AXIS2_PLACEMENT_3D('',#492,#493,#494);
#496=CIRCLE('',#495,11.0);
#497=EDGE_CURVE('',#491,#491,#496,.T.);
#498=ORIENTED_EDGE('',*,*,#497,.F.);
#499=EDGE_LOOP('',(#498));
#500=FACE_OUTER_BOUND('',#499,.T.);
#501=ORIENTED_EDGE('',*,*,#438,.F.);
#502=EDGE_LOOP('',(#501));
#503=FACE_BOUND('',#502,.T.);
#504=ADVANCED_FACE('',(#500,#503),#489,.F.);
#505=CARTESIAN_POINT('',(-30.000000000000007,66.631487952202249,12.0));
#506=DIRECTION('',(-3.767694E-032,-1.0,-2.207633E-032));
#507=DIRECTION('',(1.0,0.0,0.0));
#508=AXIS2_PLACEMENT_3D('',#505,#506,#507);
#509=CYLINDRICAL_SURFACE('',#508,3.25);
#510=ORIENTED_EDGE('',*,*,#261,.F.);
#511=EDGE_LOOP('',(#510));
#512=FACE_OUTER_BOUND('',#511,.T.);
#513=CARTESIAN_POINT('',(-26.750000000000007,-28.500000000000014,12.0));
#514=VERTEX_POINT('',#513);
#515=CARTESIAN_POINT('',(-30.000000000000007,-28.500000000000014,12.0));
#516=DIRECTION('',(0.0,1.0,0.0));
#517=DIRECTION('',(1.0,0.0,0.0));
#518=AXIS2_PLACEMENT_3D('',#515,#516,#517);
#519=CIRCLE('',#518,3.25);
#520=EDGE_CURVE('',#514,#514,#519,.T.);
#521=ORIENTED_EDGE('',*,*,#520,.F.);
#522=EDGE_LOOP('',(#521));
#523=FACE_BOUND('',#522,.T.);
#524=ADVANCED_FACE('',(#512,#523),#509,.F.);
#525=CARTESIAN_POINT('',(29.999999999999993,66.631487952202249,12.0));
#526=DIRECTION('',(-3.767694E-032,-1.0,-2.207633E-032));
#527=DIRECTION('',(1.0,0.0,0.0));
#528=AXIS2_PLACEMENT_3D('',#525,#526,#527);
#529=CYLINDRICAL_SURFACE('',#528,3.25);
#530=ORIENTED_EDGE('',*,*,#272,.F.);
#531=EDGE_LOOP('',(#530));
#532=FACE_OUTER_BOUND('',#531,.T.);
#533=CARTESIAN_POINT('',(33.249999999999993,-28.500000000000014,12.0));
#534=VERTEX_POINT('',#533);
#535=CARTESIAN_POINT('',(29.999999999999993,-28.500000000000014,12.0));
#536=DIRECTION('',(0.0,1.0,0.0));
#537=DIRECTION('',(1.0,0.0,0.0));
#538=AXIS2_PLACEMENT_3D('',#535,#536,#537);
#539=CIRCLE('',#538,3.25);
#540=EDGE_CURVE('',#534,#534,#539,.T.);
#541=ORIENTED_EDGE('',*,*,#540,.F.);
#542=EDGE_LOOP('',(#541));
#543=FACE_BOUND('',#542,.T.);
#544=ADVANCED_FACE('',(#532,#543),#529,.F.);
#545=CARTESIAN_POINT('',(-8.881784E-015,-24.500000000000021,4.0));
#546=DIRECTION('',(-1.0,0.0,0.0));
#547=DIRECTION('',(0.0,0.0,-1.0));
#548=AXIS2_PLACEMENT_3D('',#545,#546,#547);
#549=CYLINDRICAL_SURFACE('',#548,4.0);
#550=CARTESIAN_POINT('',(-37.500000000000014,-28.500000000000014,4.000000000000002));
#551=DIRECTION('',(1.0,0.0,0.0));
#552=VECTOR('',#551,75.0);
#553=LINE('',#550,#552);
#554=EDGE_CURVE('',#197,#316,#553,.T.);
#555=ORIENTED_EDGE('',*,*,#554,.F.);
#556=ORIENTED_EDGE('',*,*,#203,.F.);
#557=ORIENTED_EDGE('',*,*,#426,.F.);
#558=ORIENTED_EDGE('',*,*,#330,.T.);
#559=EDGE_LOOP('',(#555,#556,#557,#558));
#560=FACE_OUTER_BOUND('',#559,.T.);
#561=ADVANCED_FACE('',(#560),#549,.T.);
#562=CARTESIAN_POINT('',(-8.881784E-015,-24.500000000000021,4.0));
#563=DIRECTION('',(-1.0,0.0,0.0));
#564=DIRECTION('',(0.0,0.0,-1.0));
#565=AXIS2_PLACEMENT_3D('',#562,#563,#564);
#566=CYLINDRICAL_SURFACE('',#565,2.0);
#567=ORIENTED_EDGE('',*,*,#249,.F.);
#568=ORIENTED_EDGE('',*,*,#361,.F.);
#569=CARTESIAN_POINT('',(-37.500000000000007,-24.500000000000007,2.0));
#570=DIRECTION('',(1.0,0.0,0.0));
#571=VECTOR('',#570,75.0);
#572=LINE('',#569,#571);
#573=EDGE_CURVE('',#164,#349,#572,.T.);
#574=ORIENTED_EDGE('',*,*,#573,.F.);
#575=ORIENTED_EDGE('',*,*,#170,.T.);
#576=EDGE_LOOP('',(#567,#568,#574,#575));
#577=FACE_OUTER_BOUND('',#576,.T.);
#578=ADVANCED_FACE('',(#577),#566,.F.);
#579=CARTESIAN_POINT('',(1.110223E-015,-5.885444E-015,2.0));
#580=DIRECTION('',(0.0,0.0,1.0));
#581=DIRECTION('',(1.0,0.0,0.0));
#582=AXIS2_PLACEMENT_3D('',#579,#580,#581);
#583=PLANE('',#582);
#584=ORIENTED_EDGE('',*,*,#379,.F.);
#585=ORIENTED_EDGE('',*,*,#178,.F.);
#586=ORIENTED_EDGE('',*,*,#573,.T.);
#587=ORIENTED_EDGE('',*,*,#354,.F.);
#588=ORIENTED_EDGE('',*,*,#477,.F.);
#589=ORIENTED_EDGE('',*,*,#455,.F.);
#590=EDGE_LOOP('',(#584,#585,#586,#587,#588,#589));
#591=FACE_OUTER_BOUND('',#590,.T.);
#592=ORIENTED_EDGE('',*,*,#497,.T.);
#593=EDGE_LOOP('',(#592));
#594=FACE_BOUND('',#593,.T.);
#595=ADVANCED_FACE('',(#591,#594),#583,.T.);
#596=CARTESIAN_POINT('',(-37.500000000000007,-26.500000000000007,20.0));
#597=DIRECTION('',(0.0,0.0,1.0));
#598=DIRECTION('',(1.0,0.0,0.0));
#599=AXIS2_PLACEMENT_3D('',#596,#597,#598);
#600=PLANE('',#599);
#601=ORIENTED_EDGE('',*,*,#129,.F.);
#602=CARTESIAN_POINT('',(-35.500000000000007,-28.500000000000011,20.0));
#603=DIRECTION('',(1.0,0.0,0.0));
#604=VECTOR('',#603,71.0);
#605=LINE('',#602,#604);
#606=EDGE_CURVE('',#115,#283,#605,.T.);
#607=ORIENTED_EDGE('',*,*,#606,.T.);
#608=ORIENTED_EDGE('',*,*,#304,.F.);
#609=ORIENTED_EDGE('',*,*,#226,.T.);
#610=EDGE_LOOP('',(#601,#607,#608,#609));
#611=FACE_OUTER_BOUND('',#610,.T.);
#612=ADVANCED_FACE('',(#611),#600,.T.);
#613=CARTESIAN_POINT('',(-4.996004E-015,-28.500000000000014,10.0));
#614=DIRECTION('',(0.0,1.0,0.0));
#615=DIRECTION('',(0.0,0.0,1.0));
#616=AXIS2_PLACEMENT_3D('',#613,#614,#615);
#617=PLANE('',#616);
#618=ORIENTED_EDGE('',*,*,#121,.F.);
#619=ORIENTED_EDGE('',*,*,#209,.F.);
#620=ORIENTED_EDGE('',*,*,#554,.T.);
#621=ORIENTED_EDGE('',*,*,#321,.F.);
#622=ORIENTED_EDGE('',*,*,#291,.F.);
#623=ORIENTED_EDGE('',*,*,#606,.F.);
#624=EDGE_LOOP('',(#618,#619,#620,#621,#622,#623));
#625=FACE_OUTER_BOUND('',#624,.T.);
#626=ORIENTED_EDGE('',*,*,#520,.T.);
#627=EDGE_LOOP('',(#626));
#628=FACE_BOUND('',#627,.T.);
#629=ORIENTED_EDGE('',*,*,#540,.T.);
#630=EDGE_LOOP('',(#629));
#631=FACE_BOUND('',#630,.T.);
#632=ADVANCED_FACE('',(#625,#628,#631),#617,.F.);
#633=CLOSED_SHELL('',(#148,#213,#276,#308,#366,#399,#442,#466,#484,#504,#524,#544,#561,#578,#595,#612,#632));
#634=MANIFOLD_SOLID_BREP('Volumenk\S\vrper1',#633);
#635=DRAUGHTING_PRE_DEFINED_COLOUR('black');
#636=FILL_AREA_STYLE_COLOUR('Schwarz',#635);
#637=FILL_AREA_STYLE('Schwarz',(#636));
#638=SURFACE_STYLE_FILL_AREA(#637);
#639=SURFACE_SIDE_STYLE('Schwarz',(#638));
#640=SURFACE_STYLE_USAGE(.BOTH.,#639);
#641=PRESENTATION_STYLE_ASSIGNMENT((#640));
#642=STYLED_ITEM('',(#641),#634);
#643=MECHANICAL_DESIGN_GEOMETRIC_PRESENTATION_REPRESENTATION('',(#642),#36);
#644=ADVANCED_BREP_SHAPE_REPRESENTATION('ABSR',(#634),#75);
#645=SHAPE_REPRESENTATION_RELATIONSHIP('SRR','None',#644,#80);
#646=AXIS2_PLACEMENT_3D('',#647,#648,#649);
#647=CARTESIAN_POINT('',(0.0,0.0,0.0));
#648=DIRECTION('',(0.0,0.0,1.0));
#649=DIRECTION('',(1.0,0.0,0.0));
#650=NEXT_ASSEMBLY_USAGE_OCCURRENCE('0604131_Befestigungswinkel_75mm:1','0604131_Befestigungswinkel_75mm:1','0604131_Befestigungswinkel_75mm:1',#12,#51,'0604131_Befestigungswinkel_75mm:1');
#651=PRODUCT_DEFINITION_SHAPE('0604131_Befestigungswinkel_75mm:1','0604131_Befestigungswinkel_75mm:1',#650);
#652=ITEM_DEFINED_TRANSFORMATION('0604131_Befestigungswinkel_75mm:1','0604131_Befestigungswinkel_75mm:1',#76,#646);
#656=(REPRESENTATION_RELATIONSHIP('0604131_Befestigungswinkel_75mm:1','0604131_Befestigungswinkel_75mm:1',#80,#41)REPRESENTATION_RELATIONSHIP_WITH_TRANSFORMATION(#652)SHAPE_REPRESENTATION_RELATIONSHIP());
#657=CONTEXT_DEPENDENT_SHAPE_REPRESENTATION(#656,#651);
ENDSEC;
END-ISO-10303-21;
