ISO-10303-21;
HEADER;
/* Generated by software containing ST-Developer
 * from STEP Tools, Inc. (www.steptools.com) 
 */
/* OPTION: strings as raw bytes, not using required /X/ escapes */

FILE_DESCRIPTION(
/* description */ (''),
/* implementation_level */ '2;1');

FILE_NAME(
/* name */ '2041_Kerek_kefe_D28x15',
/* time_stamp */ '2020-02-14T09:27:04+01:00',
/* author */ ('VĂ©gh MĂˇtĂ©'),
/* organization */ ('Bearing Kft'),
/* preprocessor_version */ 'ST-DEVELOPER v16.7',
/* originating_system */ 'DEX',
/* authorisation */ $);

FILE_SCHEMA (('AUTOMOTIVE_DESIGN {1 0 10303 214 3 1 1}'));
ENDSEC;

DATA;
#10=PROPERTY_DEFINITION_REPRESENTATION(#14,#12);
#11=PROPERTY_DEFINITION_REPRESENTATION(#15,#13);
#12=REPRESENTATION('',(#16),#283);
#13=REPRESENTATION('',(#17),#283);
#14=PROPERTY_DEFINITION('pmi validation property','',#288);
#15=PROPERTY_DEFINITION('pmi validation property','',#288);
#16=VALUE_REPRESENTATION_ITEM('number of annotations',COUNT_MEASURE(0.));
#17=VALUE_REPRESENTATION_ITEM('number of views',COUNT_MEASURE(0.));
#18=SHAPE_REPRESENTATION_RELATIONSHIP('','',#165,#19);
#19=ADVANCED_BREP_SHAPE_REPRESENTATION('',(#163),#283);
#20=CONICAL_SURFACE('',#183,13.5,0.785398163397449);
#21=CONICAL_SURFACE('',#189,13.5,0.785398163397448);
#22=PLANE('',#170);
#23=PLANE('',#174);
#24=PLANE('',#175);
#25=PLANE('',#182);
#26=PLANE('',#188);
#27=PLANE('',#191);
#28=ORIENTED_EDGE('',*,*,#52,.T.);
#29=ORIENTED_EDGE('',*,*,#53,.T.);
#30=ORIENTED_EDGE('',*,*,#52,.F.);
#31=ORIENTED_EDGE('',*,*,#54,.T.);
#32=ORIENTED_EDGE('',*,*,#55,.F.);
#33=ORIENTED_EDGE('',*,*,#53,.F.);
#34=ORIENTED_EDGE('',*,*,#54,.F.);
#35=ORIENTED_EDGE('',*,*,#56,.T.);
#36=ORIENTED_EDGE('',*,*,#55,.T.);
#37=ORIENTED_EDGE('',*,*,#57,.F.);
#38=ORIENTED_EDGE('',*,*,#56,.F.);
#39=ORIENTED_EDGE('',*,*,#58,.T.);
#40=ORIENTED_EDGE('',*,*,#59,.F.);
#41=ORIENTED_EDGE('',*,*,#58,.F.);
#42=ORIENTED_EDGE('',*,*,#60,.T.);
#43=ORIENTED_EDGE('',*,*,#61,.T.);
#44=ORIENTED_EDGE('',*,*,#62,.F.);
#45=ORIENTED_EDGE('',*,*,#60,.F.);
#46=ORIENTED_EDGE('',*,*,#57,.T.);
#47=ORIENTED_EDGE('',*,*,#61,.F.);
#48=ORIENTED_EDGE('',*,*,#63,.T.);
#49=ORIENTED_EDGE('',*,*,#62,.T.);
#50=ORIENTED_EDGE('',*,*,#59,.T.);
#51=ORIENTED_EDGE('',*,*,#63,.F.);
#52=EDGE_CURVE('',#64,#64,#76,.T.);
#53=EDGE_CURVE('',#65,#65,#77,.T.);
#54=EDGE_CURVE('',#66,#66,#78,.T.);
#55=EDGE_CURVE('',#67,#67,#79,.T.);
#56=EDGE_CURVE('',#68,#68,#80,.T.);
#57=EDGE_CURVE('',#69,#69,#81,.T.);
#58=EDGE_CURVE('',#70,#70,#82,.T.);
#59=EDGE_CURVE('',#71,#71,#83,.T.);
#60=EDGE_CURVE('',#72,#72,#84,.T.);
#61=EDGE_CURVE('',#73,#73,#85,.T.);
#62=EDGE_CURVE('',#74,#74,#86,.T.);
#63=EDGE_CURVE('',#75,#75,#87,.T.);
#64=VERTEX_POINT('',#247);
#65=VERTEX_POINT('',#249);
#66=VERTEX_POINT('',#253);
#67=VERTEX_POINT('',#255);
#68=VERTEX_POINT('',#259);
#69=VERTEX_POINT('',#262);
#70=VERTEX_POINT('',#265);
#71=VERTEX_POINT('',#267);
#72=VERTEX_POINT('',#271);
#73=VERTEX_POINT('',#273);
#74=VERTEX_POINT('',#276);
#75=VERTEX_POINT('',#280);
#76=CIRCLE('',#168,1.75);
#77=CIRCLE('',#169,1.75);
#78=CIRCLE('',#172,6.75);
#79=CIRCLE('',#173,6.75);
#80=CIRCLE('',#176,5.7225);
#81=CIRCLE('',#178,5.7225);
#82=CIRCLE('',#180,12.5);
#83=CIRCLE('',#181,12.5);
#84=CIRCLE('',#184,14.);
#85=CIRCLE('',#185,13.);
#86=CIRCLE('',#187,14.);
#87=CIRCLE('',#190,13.);
#88=EDGE_LOOP('',(#28));
#89=EDGE_LOOP('',(#29));
#90=EDGE_LOOP('',(#30));
#91=EDGE_LOOP('',(#31));
#92=EDGE_LOOP('',(#32));
#93=EDGE_LOOP('',(#33));
#94=EDGE_LOOP('',(#34));
#95=EDGE_LOOP('',(#35));
#96=EDGE_LOOP('',(#36));
#97=EDGE_LOOP('',(#37));
#98=EDGE_LOOP('',(#38));
#99=EDGE_LOOP('',(#39));
#100=EDGE_LOOP('',(#40));
#101=EDGE_LOOP('',(#41));
#102=EDGE_LOOP('',(#42));
#103=EDGE_LOOP('',(#43));
#104=EDGE_LOOP('',(#44));
#105=EDGE_LOOP('',(#45));
#106=EDGE_LOOP('',(#46));
#107=EDGE_LOOP('',(#47));
#108=EDGE_LOOP('',(#48));
#109=EDGE_LOOP('',(#49));
#110=EDGE_LOOP('',(#50));
#111=EDGE_LOOP('',(#51));
#112=FACE_BOUND('',#88,.T.);
#113=FACE_BOUND('',#89,.T.);
#114=FACE_BOUND('',#90,.T.);
#115=FACE_BOUND('',#91,.T.);
#116=FACE_BOUND('',#92,.T.);
#117=FACE_BOUND('',#93,.T.);
#118=FACE_BOUND('',#94,.T.);
#119=FACE_BOUND('',#95,.T.);
#120=FACE_BOUND('',#96,.T.);
#121=FACE_BOUND('',#97,.T.);
#122=FACE_BOUND('',#98,.T.);
#123=FACE_BOUND('',#99,.T.);
#124=FACE_BOUND('',#100,.T.);
#125=FACE_BOUND('',#101,.T.);
#126=FACE_BOUND('',#102,.T.);
#127=FACE_BOUND('',#103,.T.);
#128=FACE_BOUND('',#104,.T.);
#129=FACE_BOUND('',#105,.T.);
#130=FACE_BOUND('',#106,.T.);
#131=FACE_BOUND('',#107,.T.);
#132=FACE_BOUND('',#108,.T.);
#133=FACE_BOUND('',#109,.T.);
#134=FACE_BOUND('',#110,.T.);
#135=FACE_BOUND('',#111,.T.);
#136=CYLINDRICAL_SURFACE('',#167,1.75);
#137=CYLINDRICAL_SURFACE('',#171,6.75);
#138=CYLINDRICAL_SURFACE('',#177,5.7225);
#139=CYLINDRICAL_SURFACE('',#179,12.5);
#140=CYLINDRICAL_SURFACE('',#186,14.);
#141=ADVANCED_FACE('',(#112,#113),#136,.F.);
#142=ADVANCED_FACE('',(#114),#22,.F.);
#143=ADVANCED_FACE('',(#115,#116),#137,.F.);
#144=ADVANCED_FACE('',(#117,#118),#23,.F.);
#145=ADVANCED_FACE('',(#119,#120),#24,.F.);
#146=ADVANCED_FACE('',(#121,#122),#138,.F.);
#147=ADVANCED_FACE('',(#123,#124),#139,.T.);
#148=ADVANCED_FACE('',(#125),#25,.F.);
#149=ADVANCED_FACE('',(#126,#127),#20,.T.);
#150=ADVANCED_FACE('',(#128,#129),#140,.T.);
#151=ADVANCED_FACE('',(#130,#131),#26,.T.);
#152=ADVANCED_FACE('',(#132,#133),#21,.T.);
#153=ADVANCED_FACE('',(#134,#135),#27,.F.);
#154=CLOSED_SHELL('',(#141,#142,#143,#144,#145,#146,#147,#148,#149,#150,
#151,#152,#153));
#155=STYLED_ITEM('',(#156),#163);
#156=PRESENTATION_STYLE_ASSIGNMENT((#157));
#157=SURFACE_STYLE_USAGE(.BOTH.,#158);
#158=SURFACE_SIDE_STYLE('',(#159));
#159=SURFACE_STYLE_FILL_AREA(#160);
#160=FILL_AREA_STYLE('',(#161));
#161=FILL_AREA_STYLE_COLOUR('',#162);
#162=COLOUR_RGB('',0.506983280181885,0.531564235687256,0.550000011920929);
#163=MANIFOLD_SOLID_BREP('',#154);
#164=SHAPE_DEFINITION_REPRESENTATION(#288,#165);
#165=SHAPE_REPRESENTATION('2041_Kerek_kefe_D28x15',(#166),#283);
#166=AXIS2_PLACEMENT_3D('',#244,#192,#193);
#167=AXIS2_PLACEMENT_3D('',#245,#194,#195);
#168=AXIS2_PLACEMENT_3D('',#246,#196,#197);
#169=AXIS2_PLACEMENT_3D('',#248,#198,#199);
#170=AXIS2_PLACEMENT_3D('',#250,#200,#201);
#171=AXIS2_PLACEMENT_3D('',#251,#202,#203);
#172=AXIS2_PLACEMENT_3D('',#252,#204,#205);
#173=AXIS2_PLACEMENT_3D('',#254,#206,#207);
#174=AXIS2_PLACEMENT_3D('',#256,#208,#209);
#175=AXIS2_PLACEMENT_3D('',#257,#210,#211);
#176=AXIS2_PLACEMENT_3D('',#258,#212,#213);
#177=AXIS2_PLACEMENT_3D('',#260,#214,#215);
#178=AXIS2_PLACEMENT_3D('',#261,#216,#217);
#179=AXIS2_PLACEMENT_3D('',#263,#218,#219);
#180=AXIS2_PLACEMENT_3D('',#264,#220,#221);
#181=AXIS2_PLACEMENT_3D('',#266,#222,#223);
#182=AXIS2_PLACEMENT_3D('',#268,#224,#225);
#183=AXIS2_PLACEMENT_3D('',#269,#226,#227);
#184=AXIS2_PLACEMENT_3D('',#270,#228,#229);
#185=AXIS2_PLACEMENT_3D('',#272,#230,#231);
#186=AXIS2_PLACEMENT_3D('',#274,#232,#233);
#187=AXIS2_PLACEMENT_3D('',#275,#234,#235);
#188=AXIS2_PLACEMENT_3D('',#277,#236,#237);
#189=AXIS2_PLACEMENT_3D('',#278,#238,#239);
#190=AXIS2_PLACEMENT_3D('',#279,#240,#241);
#191=AXIS2_PLACEMENT_3D('',#281,#242,#243);
#192=DIRECTION('',(0.,0.,1.));
#193=DIRECTION('',(1.,0.,0.));
#194=DIRECTION('',(0.,0.,-1.));
#195=DIRECTION('',(0.,1.,0.));
#196=DIRECTION('',(0.,0.,1.));
#197=DIRECTION('',(0.,1.,0.));
#198=DIRECTION('',(0.,0.,-1.));
#199=DIRECTION('',(0.,1.,0.));
#200=DIRECTION('',(0.,0.,1.));
#201=DIRECTION('',(1.,0.,0.));
#202=DIRECTION('',(0.,0.,-1.));
#203=DIRECTION('',(0.,1.,0.));
#204=DIRECTION('',(0.,0.,1.));
#205=DIRECTION('',(0.,1.,0.));
#206=DIRECTION('',(0.,0.,1.));
#207=DIRECTION('',(0.,1.,0.));
#208=DIRECTION('',(0.,0.,1.));
#209=DIRECTION('',(1.,0.,0.));
#210=DIRECTION('',(0.,0.,-1.));
#211=DIRECTION('',(-1.,0.,0.));
#212=DIRECTION('',(0.,0.,-1.));
#213=DIRECTION('',(-1.,0.,0.));
#214=DIRECTION('',(0.,0.,1.));
#215=DIRECTION('',(-1.,0.,0.));
#216=DIRECTION('',(0.,0.,1.));
#217=DIRECTION('',(-1.,0.,0.));
#218=DIRECTION('',(0.,0.,-1.));
#219=DIRECTION('',(-1.,0.,0.));
#220=DIRECTION('',(0.,0.,-1.));
#221=DIRECTION('',(-1.,0.,0.));
#222=DIRECTION('',(0.,0.,-1.));
#223=DIRECTION('',(-1.,0.,0.));
#224=DIRECTION('',(0.,0.,-1.));
#225=DIRECTION('',(-1.,0.,0.));
#226=DIRECTION('',(0.,0.,1.));
#227=DIRECTION('',(-1.,0.,0.));
#228=DIRECTION('',(0.,0.,-1.));
#229=DIRECTION('',(-1.,0.,0.));
#230=DIRECTION('',(0.,0.,1.));
#231=DIRECTION('',(-1.,0.,0.));
#232=DIRECTION('',(0.,0.,-1.));
#233=DIRECTION('',(-1.,0.,0.));
#234=DIRECTION('',(0.,0.,1.));
#235=DIRECTION('',(-1.,0.,0.));
#236=DIRECTION('',(0.,0.,-1.));
#237=DIRECTION('',(-1.,0.,0.));
#238=DIRECTION('',(0.,0.,-1.));
#239=DIRECTION('',(-1.,0.,0.));
#240=DIRECTION('',(0.,0.,-1.));
#241=DIRECTION('',(-1.,0.,0.));
#242=DIRECTION('',(0.,0.,-1.));
#243=DIRECTION('',(-1.,0.,0.));
#244=CARTESIAN_POINT('',(0.,0.,0.));
#245=CARTESIAN_POINT('',(0.,0.,12.25));
#246=CARTESIAN_POINT('',(0.,0.,17.));
#247=CARTESIAN_POINT('',(0.,1.75,17.));
#248=CARTESIAN_POINT('',(0.,0.,7.5));
#249=CARTESIAN_POINT('',(0.,1.75,7.5));
#250=CARTESIAN_POINT('',(0.,0.875,17.));
#251=CARTESIAN_POINT('',(0.,0.,6.5));
#252=CARTESIAN_POINT('',(0.,0.,7.5));
#253=CARTESIAN_POINT('',(0.,6.75,7.5));
#254=CARTESIAN_POINT('',(0.,0.,5.5));
#255=CARTESIAN_POINT('',(0.,6.75,5.5));
#256=CARTESIAN_POINT('',(0.,3.375,7.5));
#257=CARTESIAN_POINT('',(0.,3.375,5.5));
#258=CARTESIAN_POINT('',(0.,0.,5.5));
#259=CARTESIAN_POINT('',(-5.7225,0.,5.5));
#260=CARTESIAN_POINT('',(0.,0.,2.75));
#261=CARTESIAN_POINT('',(0.,0.,0.));
#262=CARTESIAN_POINT('',(-5.7225,0.,0.));
#263=CARTESIAN_POINT('',(0.,0.,17.));
#264=CARTESIAN_POINT('',(0.,0.,32.));
#265=CARTESIAN_POINT('',(12.5,1.53080849893419E-15,32.));
#266=CARTESIAN_POINT('',(0.,0.,17.));
#267=CARTESIAN_POINT('',(12.5,1.53080849893419E-15,17.));
#268=CARTESIAN_POINT('',(0.,0.,32.));
#269=CARTESIAN_POINT('',(0.,0.,0.5));
#270=CARTESIAN_POINT('',(0.,0.,1.));
#271=CARTESIAN_POINT('',(14.,-1.71444889535133E-15,1.));
#272=CARTESIAN_POINT('',(0.,0.,0.));
#273=CARTESIAN_POINT('',(13.,1.59198825996909E-15,0.));
#274=CARTESIAN_POINT('',(0.,0.,0.));
#275=CARTESIAN_POINT('',(0.,0.,16.));
#276=CARTESIAN_POINT('',(14.,1.71444889535133E-15,16.));
#277=CARTESIAN_POINT('',(0.,0.,0.));
#278=CARTESIAN_POINT('',(0.,0.,16.5));
#279=CARTESIAN_POINT('',(0.,0.,17.));
#280=CARTESIAN_POINT('',(13.,-1.59198825996909E-15,17.));
#281=CARTESIAN_POINT('',(0.,0.,17.));
#282=MECHANICAL_DESIGN_GEOMETRIC_PRESENTATION_REPRESENTATION('',(#155),
#283);
#283=(
GEOMETRIC_REPRESENTATION_CONTEXT(3)
GLOBAL_UNCERTAINTY_ASSIGNED_CONTEXT((#284))
GLOBAL_UNIT_ASSIGNED_CONTEXT((#287,#286,#285))
REPRESENTATION_CONTEXT('2041_Kerek_kefe_D28x15',
'TOP_LEVEL_ASSEMBLY_PART')
);
#284=UNCERTAINTY_MEASURE_WITH_UNIT(LENGTH_MEASURE(0.005),#287,
'DISTANCE_ACCURACY_VALUE','Maximum Tolerance applied to model');
#285=(
NAMED_UNIT(*)
SI_UNIT($,.STERADIAN.)
SOLID_ANGLE_UNIT()
);
#286=(
NAMED_UNIT(*)
PLANE_ANGLE_UNIT()
SI_UNIT($,.RADIAN.)
);
#287=(
LENGTH_UNIT()
NAMED_UNIT(*)
SI_UNIT(.MILLI.,.METRE.)
);
#288=PRODUCT_DEFINITION_SHAPE('','',#289);
#289=PRODUCT_DEFINITION('','',#291,#290);
#290=PRODUCT_DEFINITION_CONTEXT('',#297,'design');
#291=PRODUCT_DEFINITION_FORMATION_WITH_SPECIFIED_SOURCE('','',#293,
 .NOT_KNOWN.);
#292=PRODUCT_RELATED_PRODUCT_CATEGORY('','',(#293));
#293=PRODUCT('2041_Kerek_kefe_D28x15','2041_Kerek_kefe_D28x15',
'2041_Kerek_kefe_D28x15',(#295));
#294=PRODUCT_CATEGORY('','');
#295=PRODUCT_CONTEXT('',#297,'mechanical');
#296=APPLICATION_PROTOCOL_DEFINITION('international standard',
'automotive_design',2010,#297);
#297=APPLICATION_CONTEXT(
'core data for automotive mechanical design processes');
ENDSEC;
END-ISO-10303-21;
