ISO-10303-21;
HEADER;
/****************************************************************
 * Generated by software with PDElib inside                    *
 * PDElib Version v51a, created Wed 07/06/2011                  *
 * ITI Transcendata (http://www.transcendata.com/)              *
 ****************************************************************/
FILE_DESCRIPTION((''),'2;1');
FILE_NAME('S:\\3. Leistungserbringung\\3.10 Produkteentwicklung\\3.10.05 Produktentwicklung\\CAD\\Konstruktion\\06 Lube\\6_21 Verkaufsteile\\Step\\2014_Distanzhalter.stp','2011-12-05T09:04:39',('pascalzweiacker'),(''),'Autodesk Inventor 2012','Autodesk Inventor 2012','');
FILE_SCHEMA(('AUTOMOTIVE_DESIGN { 1 0 10303 214 1 1 1 1 }'));
ENDSEC;
DATA;
#5=APPLICATION_CONTEXT('automotive design');
#6=APPLICATION_PROTOCOL_DEFINITION('International Standard','automotive_design',2001,#5);
#7=PRODUCT_CONTEXT('',#5,'mechanical');
#8=PRODUCT('2014_Distanzhalter','2014_Distanzhalter',$,(#7));
#9=PRODUCT_RELATED_PRODUCT_CATEGORY('part',$,(#8));
#10=PRODUCT_DEFINITION_FORMATION('',$,#8);
#11=PRODUCT_DEFINITION_CONTEXT('part definition',#5,'design');
#12=PRODUCT_DEFINITION('',$,#10,#11);
#18=(NAMED_UNIT(*)PLANE_ANGLE_UNIT()SI_UNIT($,.RADIAN.));
#19=DIMENSIONAL_EXPONENTS(0.0,0.0,0.0,0.0,0.0,0.0,0.0);
#20=PLANE_ANGLE_MEASURE_WITH_UNIT(PLANE_ANGLE_MEASURE(0.0174532925),#18);
#24=(CONVERSION_BASED_UNIT('DEGREE',#20)NAMED_UNIT(#19)PLANE_ANGLE_UNIT());
#28=(NAMED_UNIT(*)SI_UNIT($,.STERADIAN.)SOLID_ANGLE_UNIT());
#32=(LENGTH_UNIT()NAMED_UNIT(*)SI_UNIT(.MILLI.,.METRE.));
#34=UNCERTAINTY_MEASURE_WITH_UNIT(LENGTH_MEASURE(0.01),#32,'DISTANCE_ACCURACY_VALUE','');
#36=(GEOMETRIC_REPRESENTATION_CONTEXT(3)GLOBAL_UNCERTAINTY_ASSIGNED_CONTEXT((#34))GLOBAL_UNIT_ASSIGNED_CONTEXT((#24,#28,#32))REPRESENTATION_CONTEXT('None','None'));
#37=AXIS2_PLACEMENT_3D('',#38,#39,#40);
#38=CARTESIAN_POINT('',(0.0,0.0,0.0));
#39=DIRECTION('',(0.0,0.0,1.0));
#40=DIRECTION('',(1.0,0.0,0.0));
#41=SHAPE_REPRESENTATION('',(#37),#36);
#42=PRODUCT_DEFINITION_SHAPE('','',#12);
#43=SHAPE_DEFINITION_REPRESENTATION(#42,#41);
#49=(NAMED_UNIT(*)PLANE_ANGLE_UNIT()SI_UNIT($,.RADIAN.));
#50=DIMENSIONAL_EXPONENTS(0.0,0.0,0.0,0.0,0.0,0.0,0.0);
#51=PLANE_ANGLE_MEASURE_WITH_UNIT(PLANE_ANGLE_MEASURE(0.0174532925),#49);
#55=(CONVERSION_BASED_UNIT('DEGREE',#51)NAMED_UNIT(#50)PLANE_ANGLE_UNIT());
#59=(NAMED_UNIT(*)SI_UNIT($,.STERADIAN.)SOLID_ANGLE_UNIT());
#63=(LENGTH_UNIT()NAMED_UNIT(*)SI_UNIT(.MILLI.,.METRE.));
#65=UNCERTAINTY_MEASURE_WITH_UNIT(LENGTH_MEASURE(0.000001),#63,'DISTANCE_ACCURACY_VALUE','');
#67=(GEOMETRIC_REPRESENTATION_CONTEXT(3)GLOBAL_UNCERTAINTY_ASSIGNED_CONTEXT((#65))GLOBAL_UNIT_ASSIGNED_CONTEXT((#55,#59,#63))REPRESENTATION_CONTEXT('','3D'));
#68=CARTESIAN_POINT('',(7.621359333251283,-1.310679605993546,16.0));
#69=DIRECTION('',(0.0,0.0,-1.0));
#70=DIRECTION('',(-1.0,0.0,0.0));
#71=AXIS2_PLACEMENT_3D('',#68,#69,#70);
#72=CYLINDRICAL_SURFACE('',#71,7.000000000000002);
#73=CARTESIAN_POINT('',(14.621359333251284,-1.310679605993545,14.5));
#74=VERTEX_POINT('',#73);
#75=CARTESIAN_POINT('',(7.621359333251283,-1.310679605993546,14.5));
#76=DIRECTION('',(0.0,0.0,1.0));
#77=DIRECTION('',(-1.0,0.0,0.0));
#78=AXIS2_PLACEMENT_3D('',#75,#76,#77);
#79=CIRCLE('',#78,7.000000000000002);
#80=EDGE_CURVE('',#74,#74,#79,.T.);
#81=ORIENTED_EDGE('',*,*,#80,.F.);
#82=EDGE_LOOP('',(#81));
#83=FACE_OUTER_BOUND('',#82,.T.);
#84=CARTESIAN_POINT('',(14.621359333251284,-1.310679605993545,2.5));
#85=VERTEX_POINT('',#84);
#86=CARTESIAN_POINT('',(7.621359333251283,-1.310679605993546,2.5));
#87=DIRECTION('',(0.0,0.0,1.0));
#88=DIRECTION('',(-1.0,0.0,0.0));
#89=AXIS2_PLACEMENT_3D('',#86,#87,#88);
#90=CIRCLE('',#89,7.000000000000002);
#91=EDGE_CURVE('',#85,#85,#90,.T.);
#92=ORIENTED_EDGE('',*,*,#91,.T.);
#93=EDGE_LOOP('',(#92));
#94=FACE_BOUND('',#93,.T.);
#95=ADVANCED_FACE('',(#83,#94),#72,.T.);
#96=CARTESIAN_POINT('',(7.621359333251283,-1.310679605993546,3.0));
#97=DIRECTION('',(0.0,0.0,1.0));
#98=DIRECTION('',(-1.0,0.0,0.0));
#99=AXIS2_PLACEMENT_3D('',#96,#97,#98);
#100=CYLINDRICAL_SURFACE('',#99,3.65);
#101=CARTESIAN_POINT('',(11.271359333251283,-1.310679605993545,2.5));
#102=VERTEX_POINT('',#101);
#103=CARTESIAN_POINT('',(7.621359333251283,-1.310679605993546,2.5));
#104=DIRECTION('',(0.0,0.0,1.0));
#105=DIRECTION('',(-1.0,0.0,0.0));
#106=AXIS2_PLACEMENT_3D('',#103,#104,#105);
#107=CIRCLE('',#106,3.65);
#108=EDGE_CURVE('',#102,#102,#107,.F.);
#109=ORIENTED_EDGE('',*,*,#108,.T.);
#110=EDGE_LOOP('',(#109));
#111=FACE_OUTER_BOUND('',#110,.T.);
#112=CARTESIAN_POINT('',(11.271359333251283,-1.310679605993546,0.0));
#113=VERTEX_POINT('',#112);
#114=CARTESIAN_POINT('',(7.621359333251283,-1.310679605993546,0.0));
#115=DIRECTION('',(0.0,0.0,-1.0));
#116=DIRECTION('',(-1.0,0.0,0.0));
#117=AXIS2_PLACEMENT_3D('',#114,#115,#116);
#118=CIRCLE('',#117,3.65);
#119=EDGE_CURVE('',#113,#113,#118,.T.);
#120=ORIENTED_EDGE('',*,*,#119,.F.);
#121=EDGE_LOOP('',(#120));
#122=FACE_BOUND('',#121,.T.);
#123=ADVANCED_FACE('',(#111,#122),#100,.T.);
#124=CARTESIAN_POINT('',(22.621359333251281,-10.810679605993542,0.0));
#125=DIRECTION('',(0.0,-1.0,0.0));
#126=DIRECTION('',(0.0,0.0,-1.0));
#127=AXIS2_PLACEMENT_3D('',#124,#125,#126);
#128=PLANE('',#127);
#129=CARTESIAN_POINT('',(19.556904807035664,-10.810679605993542,14.499999999999996));
#130=VERTEX_POINT('',#129);
#131=CARTESIAN_POINT('',(-4.314186140533099,-10.810679605993542,14.499999999999996));
#132=VERTEX_POINT('',#131);
#133=CARTESIAN_POINT('',(19.556904807035664,-10.810679605993542,14.5));
#134=DIRECTION('',(-1.0,0.0,0.0));
#135=VECTOR('',#134,23.871090947568764);
#136=LINE('',#133,#135);
#137=EDGE_CURVE('',#130,#132,#136,.T.);
#138=ORIENTED_EDGE('',*,*,#137,.F.);
#139=CARTESIAN_POINT('',(22.113646027308409,-10.810679605993542,0.0));
#140=VERTEX_POINT('',#139);
#141=CARTESIAN_POINT('',(22.113646027308405,-10.810679605993542,-1.942890E-016));
#142=DIRECTION('',(-0.17364817766693,0.0,0.984807753012208));
#143=VECTOR('',#142,14.723685872343303);
#144=LINE('',#141,#143);
#145=EDGE_CURVE('',#140,#130,#144,.T.);
#146=ORIENTED_EDGE('',*,*,#145,.F.);
#147=CARTESIAN_POINT('',(-6.87092736080584,-10.810679605993542,0.0));
#148=VERTEX_POINT('',#147);
#149=CARTESIAN_POINT('',(-6.87092736080584,-10.810679605993544,0.0));
#150=DIRECTION('',(1.0,0.0,0.0));
#151=VECTOR('',#150,28.984573388114249);
#152=LINE('',#149,#151);
#153=EDGE_CURVE('',#148,#140,#152,.T.);
#154=ORIENTED_EDGE('',*,*,#153,.F.);
#155=CARTESIAN_POINT('',(-4.314186140533101,-10.810679605993542,14.5));
#156=DIRECTION('',(-0.17364817766693,0.0,-0.984807753012208));
#157=VECTOR('',#156,14.723685872343303);
#158=LINE('',#155,#157);
#159=EDGE_CURVE('',#148,#132,#158,.F.);
#160=ORIENTED_EDGE('',*,*,#159,.T.);
#161=EDGE_LOOP('',(#138,#146,#154,#160));
#162=FACE_OUTER_BOUND('',#161,.T.);
#163=ADVANCED_FACE('',(#162),#128,.F.);
#164=CARTESIAN_POINT('',(-6.88623679024261,-11.310679605993545,-0.086824088833465));
#165=DIRECTION('',(-0.984807753012208,-5.466781E-017,0.17364817766693));
#166=DIRECTION('',(0.17364817766693,9.639410E-018,0.984807753012208));
#167=AXIS2_PLACEMENT_3D('',#164,#165,#166);
#168=PLANE('',#167);
#169=CARTESIAN_POINT('',(-4.314186140533101,8.189320394006453,14.499999999999996));
#170=VERTEX_POINT('',#169);
#171=CARTESIAN_POINT('',(-4.3141861405331,8.189320394006451,14.5));
#172=DIRECTION('',(0.0,-1.0,0.0));
#173=VECTOR('',#172,18.999999999999993);
#174=LINE('',#171,#173);
#175=EDGE_CURVE('',#132,#170,#174,.F.);
#176=ORIENTED_EDGE('',*,*,#175,.F.);
#177=ORIENTED_EDGE('',*,*,#159,.F.);
#178=CARTESIAN_POINT('',(-6.870927360805843,8.189320394006451,0.0));
#179=VERTEX_POINT('',#178);
#180=CARTESIAN_POINT('',(-6.870927360805841,8.189320394006451,0.0));
#181=DIRECTION('',(0.0,-1.0,0.0));
#182=VECTOR('',#181,18.999999999999993);
#183=LINE('',#180,#182);
#184=EDGE_CURVE('',#179,#148,#183,.T.);
#185=ORIENTED_EDGE('',*,*,#184,.F.);
#186=CARTESIAN_POINT('',(-6.870927360805843,8.189320394006451,0.0));
#187=DIRECTION('',(0.17364817766693,0.0,0.984807753012208));
#188=VECTOR('',#187,14.723685872343303);
#189=LINE('',#186,#188);
#190=EDGE_CURVE('',#179,#170,#189,.T.);
#191=ORIENTED_EDGE('',*,*,#190,.T.);
#192=EDGE_LOOP('',(#176,#177,#185,#191));
#193=FACE_OUTER_BOUND('',#192,.T.);
#194=ADVANCED_FACE('',(#193),#168,.F.);
#195=CARTESIAN_POINT('',(-7.378640666748716,8.189320394006453,0.0));
#196=DIRECTION('',(0.0,1.0,0.0));
#197=DIRECTION('',(0.0,0.0,1.0));
#198=AXIS2_PLACEMENT_3D('',#195,#196,#197);
#199=PLANE('',#198);
#200=CARTESIAN_POINT('',(19.556904807035664,8.189320394006453,14.499999999999996));
#201=VERTEX_POINT('',#200);
#202=CARTESIAN_POINT('',(-4.314186140533101,8.189320394006453,14.5));
#203=DIRECTION('',(1.0,0.0,0.0));
#204=VECTOR('',#203,23.871090947568767);
#205=LINE('',#202,#204);
#206=EDGE_CURVE('',#170,#201,#205,.T.);
#207=ORIENTED_EDGE('',*,*,#206,.F.);
#208=ORIENTED_EDGE('',*,*,#190,.F.);
#209=CARTESIAN_POINT('',(22.113646027308409,8.189320394006453,0.0));
#210=VERTEX_POINT('',#209);
#211=CARTESIAN_POINT('',(22.113646027308409,8.189320394006453,0.0));
#212=DIRECTION('',(-1.0,0.0,0.0));
#213=VECTOR('',#212,28.984573388114253);
#214=LINE('',#211,#213);
#215=EDGE_CURVE('',#210,#179,#214,.T.);
#216=ORIENTED_EDGE('',*,*,#215,.F.);
#217=CARTESIAN_POINT('',(19.556904807035668,8.189320394006453,14.5));
#218=DIRECTION('',(0.173648177666931,0.0,-0.984807753012208));
#219=VECTOR('',#218,14.723685872343303);
#220=LINE('',#217,#219);
#221=EDGE_CURVE('',#210,#201,#220,.F.);
#222=ORIENTED_EDGE('',*,*,#221,.T.);
#223=EDGE_LOOP('',(#207,#208,#216,#222));
#224=FACE_OUTER_BOUND('',#223,.T.);
#225=ADVANCED_FACE('',(#224),#199,.F.);
#226=CARTESIAN_POINT('',(22.128955456745175,8.689320394006453,-0.086824088833465));
#227=DIRECTION('',(0.984807753012208,0.0,0.17364817766693));
#228=DIRECTION('',(0.17364817766693,0.0,-0.984807753012208));
#229=AXIS2_PLACEMENT_3D('',#226,#227,#228);
#230=PLANE('',#229);
#231=CARTESIAN_POINT('',(19.556904807035664,-10.810679605993542,14.5));
#232=DIRECTION('',(0.0,1.0,0.0));
#233=VECTOR('',#232,18.999999999999993);
#234=LINE('',#231,#233);
#235=EDGE_CURVE('',#201,#130,#234,.F.);
#236=ORIENTED_EDGE('',*,*,#235,.F.);
#237=ORIENTED_EDGE('',*,*,#221,.F.);
#238=CARTESIAN_POINT('',(22.113646027308405,-10.810679605993542,1.387779E-016));
#239=DIRECTION('',(0.0,1.0,0.0));
#240=VECTOR('',#239,18.999999999999993);
#241=LINE('',#238,#240);
#242=EDGE_CURVE('',#140,#210,#241,.T.);
#243=ORIENTED_EDGE('',*,*,#242,.F.);
#244=ORIENTED_EDGE('',*,*,#145,.T.);
#245=EDGE_LOOP('',(#236,#237,#243,#244));
#246=FACE_OUTER_BOUND('',#245,.T.);
#247=ADVANCED_FACE('',(#246),#230,.F.);
#248=CARTESIAN_POINT('',(7.621359333251283,-1.310679605993546,2.5));
#249=DIRECTION('',(0.0,0.0,-1.0));
#250=DIRECTION('',(-1.0,0.0,0.0));
#251=AXIS2_PLACEMENT_3D('',#248,#249,#250);
#252=PLANE('',#251);
#253=ORIENTED_EDGE('',*,*,#91,.F.);
#254=EDGE_LOOP('',(#253));
#255=FACE_OUTER_BOUND('',#254,.T.);
#256=ORIENTED_EDGE('',*,*,#108,.F.);
#257=EDGE_LOOP('',(#256));
#258=FACE_BOUND('',#257,.T.);
#259=ADVANCED_FACE('',(#255,#258),#252,.T.);
#260=CARTESIAN_POINT('',(7.62135933325128,-1.310679605993545,14.5));
#261=DIRECTION('',(0.0,0.0,1.0));
#262=DIRECTION('',(1.0,0.0,0.0));
#263=AXIS2_PLACEMENT_3D('',#260,#261,#262);
#264=PLANE('',#263);
#265=ORIENTED_EDGE('',*,*,#235,.T.);
#266=ORIENTED_EDGE('',*,*,#137,.T.);
#267=ORIENTED_EDGE('',*,*,#175,.T.);
#268=ORIENTED_EDGE('',*,*,#206,.T.);
#269=EDGE_LOOP('',(#265,#266,#267,#268));
#270=FACE_OUTER_BOUND('',#269,.T.);
#271=ORIENTED_EDGE('',*,*,#80,.T.);
#272=EDGE_LOOP('',(#271));
#273=FACE_BOUND('',#272,.T.);
#274=ADVANCED_FACE('',(#270,#273),#264,.F.);
#275=CARTESIAN_POINT('',(7.621359333251281,-1.310679605993546,0.0));
#276=DIRECTION('',(0.0,0.0,1.0));
#277=DIRECTION('',(1.0,0.0,0.0));
#278=AXIS2_PLACEMENT_3D('',#275,#276,#277);
#279=PLANE('',#278);
#280=CARTESIAN_POINT('',(-7.378640666748716,8.689320394006453,0.0));
#281=VERTEX_POINT('',#280);
#282=CARTESIAN_POINT('',(22.621359333251281,8.689320394006453,0.0));
#283=VERTEX_POINT('',#282);
#284=CARTESIAN_POINT('',(-7.378640666748716,8.689320394006453,0.0));
#285=DIRECTION('',(1.0,0.0,0.0));
#286=VECTOR('',#285,29.999999999999996);
#287=LINE('',#284,#286);
#288=EDGE_CURVE('',#281,#283,#287,.T.);
#289=ORIENTED_EDGE('',*,*,#288,.T.);
#290=CARTESIAN_POINT('',(22.621359333251281,-11.310679605993544,0.0));
#291=VERTEX_POINT('',#290);
#292=CARTESIAN_POINT('',(22.621359333251281,8.689320394006453,0.0));
#293=DIRECTION('',(0.0,-1.0,0.0));
#294=VECTOR('',#293,19.999999999999996);
#295=LINE('',#292,#294);
#296=EDGE_CURVE('',#283,#291,#295,.T.);
#297=ORIENTED_EDGE('',*,*,#296,.T.);
#298=CARTESIAN_POINT('',(-7.378640666748715,-11.310679605993545,0.0));
#299=VERTEX_POINT('',#298);
#300=CARTESIAN_POINT('',(22.621359333251281,-11.310679605993544,0.0));
#301=DIRECTION('',(-1.0,0.0,0.0));
#302=VECTOR('',#301,29.999999999999996);
#303=LINE('',#300,#302);
#304=EDGE_CURVE('',#291,#299,#303,.T.);
#305=ORIENTED_EDGE('',*,*,#304,.T.);
#306=CARTESIAN_POINT('',(-7.378640666748715,-11.310679605993545,0.0));
#307=DIRECTION('',(0.0,1.0,0.0));
#308=VECTOR('',#307,20.0);
#309=LINE('',#306,#308);
#310=EDGE_CURVE('',#299,#281,#309,.T.);
#311=ORIENTED_EDGE('',*,*,#310,.T.);
#312=EDGE_LOOP('',(#289,#297,#305,#311));
#313=FACE_OUTER_BOUND('',#312,.T.);
#314=ORIENTED_EDGE('',*,*,#153,.T.);
#315=ORIENTED_EDGE('',*,*,#242,.T.);
#316=ORIENTED_EDGE('',*,*,#215,.T.);
#317=ORIENTED_EDGE('',*,*,#184,.T.);
#318=EDGE_LOOP('',(#314,#315,#316,#317));
#319=FACE_BOUND('',#318,.T.);
#320=ADVANCED_FACE('',(#313,#319),#279,.F.);
#321=CARTESIAN_POINT('',(7.621359333251283,-1.310679605993546,3.0));
#322=DIRECTION('',(0.0,0.0,1.0));
#323=DIRECTION('',(-1.0,0.0,0.0));
#324=AXIS2_PLACEMENT_3D('',#321,#322,#323);
#325=CYLINDRICAL_SURFACE('',#324,3.15);
#326=CARTESIAN_POINT('',(10.771359333251283,-1.310679605993546,3.0));
#327=VERTEX_POINT('',#326);
#328=CARTESIAN_POINT('',(7.621359333251283,-1.310679605993546,3.0));
#329=DIRECTION('',(0.0,0.0,-1.0));
#330=DIRECTION('',(-1.0,0.0,0.0));
#331=AXIS2_PLACEMENT_3D('',#328,#329,#330);
#332=CIRCLE('',#331,3.15);
#333=EDGE_CURVE('',#327,#327,#332,.T.);
#334=ORIENTED_EDGE('',*,*,#333,.F.);
#335=EDGE_LOOP('',(#334));
#336=FACE_OUTER_BOUND('',#335,.T.);
#337=CARTESIAN_POINT('',(10.771359333251283,-1.310679605993545,0.0));
#338=VERTEX_POINT('',#337);
#339=CARTESIAN_POINT('',(7.621359333251283,-1.310679605993546,0.0));
#340=DIRECTION('',(0.0,0.0,1.0));
#341=DIRECTION('',(-1.0,0.0,0.0));
#342=AXIS2_PLACEMENT_3D('',#339,#340,#341);
#343=CIRCLE('',#342,3.15);
#344=EDGE_CURVE('',#338,#338,#343,.T.);
#345=ORIENTED_EDGE('',*,*,#344,.F.);
#346=EDGE_LOOP('',(#345));
#347=FACE_BOUND('',#346,.T.);
#348=ADVANCED_FACE('',(#336,#347),#325,.F.);
#349=CARTESIAN_POINT('',(7.621359333251283,-1.310679605993546,16.0));
#350=DIRECTION('',(0.0,0.0,-1.0));
#351=DIRECTION('',(-1.0,0.0,0.0));
#352=AXIS2_PLACEMENT_3D('',#349,#350,#351);
#353=CYLINDRICAL_SURFACE('',#352,6.5);
#354=CARTESIAN_POINT('',(14.121359333251284,-1.310679605993545,3.0));
#355=VERTEX_POINT('',#354);
#356=CARTESIAN_POINT('',(7.621359333251283,-1.310679605993546,3.0));
#357=DIRECTION('',(0.0,0.0,1.0));
#358=DIRECTION('',(-1.0,0.0,0.0));
#359=AXIS2_PLACEMENT_3D('',#356,#357,#358);
#360=CIRCLE('',#359,6.5);
#361=EDGE_CURVE('',#355,#355,#360,.T.);
#362=ORIENTED_EDGE('',*,*,#361,.F.);
#363=EDGE_LOOP('',(#362));
#364=FACE_OUTER_BOUND('',#363,.T.);
#365=CARTESIAN_POINT('',(14.121359333251284,-1.310679605993545,16.0));
#366=VERTEX_POINT('',#365);
#367=CARTESIAN_POINT('',(7.621359333251283,-1.310679605993546,16.0));
#368=DIRECTION('',(0.0,0.0,-1.0));
#369=DIRECTION('',(-1.0,0.0,0.0));
#370=AXIS2_PLACEMENT_3D('',#367,#368,#369);
#371=CIRCLE('',#370,6.5);
#372=EDGE_CURVE('',#366,#366,#371,.T.);
#373=ORIENTED_EDGE('',*,*,#372,.F.);
#374=EDGE_LOOP('',(#373));
#375=FACE_BOUND('',#374,.T.);
#376=ADVANCED_FACE('',(#364,#375),#353,.F.);
#377=CARTESIAN_POINT('',(7.621359333251283,-1.310679605993546,3.0));
#378=DIRECTION('',(0.0,0.0,-1.0));
#379=DIRECTION('',(-1.0,0.0,0.0));
#380=AXIS2_PLACEMENT_3D('',#377,#378,#379);
#381=PLANE('',#380);
#382=ORIENTED_EDGE('',*,*,#361,.T.);
#383=EDGE_LOOP('',(#382));
#384=FACE_OUTER_BOUND('',#383,.T.);
#385=ORIENTED_EDGE('',*,*,#333,.T.);
#386=EDGE_LOOP('',(#385));
#387=FACE_BOUND('',#386,.T.);
#388=ADVANCED_FACE('',(#384,#387),#381,.F.);
#389=CARTESIAN_POINT('',(7.621359333251283,-1.310679605993546,15.0));
#390=DIRECTION('',(0.0,0.0,1.0));
#391=DIRECTION('',(-1.0,0.0,0.0));
#392=AXIS2_PLACEMENT_3D('',#389,#390,#391);
#393=CYLINDRICAL_SURFACE('',#392,7.000000000000001);
#394=CARTESIAN_POINT('',(14.621359333251283,-1.310679605993545,16.0));
#395=VERTEX_POINT('',#394);
#396=CARTESIAN_POINT('',(7.621359333251283,-1.310679605993546,16.0));
#397=DIRECTION('',(0.0,0.0,-1.0));
#398=DIRECTION('',(-1.0,0.0,0.0));
#399=AXIS2_PLACEMENT_3D('',#396,#397,#398);
#400=CIRCLE('',#399,7.000000000000001);
#401=EDGE_CURVE('',#395,#395,#400,.T.);
#402=ORIENTED_EDGE('',*,*,#401,.T.);
#403=EDGE_LOOP('',(#402));
#404=FACE_OUTER_BOUND('',#403,.T.);
#405=CARTESIAN_POINT('',(14.621359333251283,-1.310679605993545,15.0));
#406=VERTEX_POINT('',#405);
#407=CARTESIAN_POINT('',(7.621359333251283,-1.310679605993546,15.0));
#408=DIRECTION('',(0.0,0.0,-1.0));
#409=DIRECTION('',(-1.0,0.0,0.0));
#410=AXIS2_PLACEMENT_3D('',#407,#408,#409);
#411=CIRCLE('',#410,7.000000000000001);
#412=EDGE_CURVE('',#406,#406,#411,.T.);
#413=ORIENTED_EDGE('',*,*,#412,.F.);
#414=EDGE_LOOP('',(#413));
#415=FACE_BOUND('',#414,.T.);
#416=ADVANCED_FACE('',(#404,#415),#393,.T.);
#417=CARTESIAN_POINT('',(7.621359333251283,-1.310679605993546,16.0));
#418=DIRECTION('',(0.0,0.0,-1.0));
#419=DIRECTION('',(-1.0,0.0,0.0));
#420=AXIS2_PLACEMENT_3D('',#417,#418,#419);
#421=PLANE('',#420);
#422=ORIENTED_EDGE('',*,*,#401,.F.);
#423=EDGE_LOOP('',(#422));
#424=FACE_OUTER_BOUND('',#423,.T.);
#425=ORIENTED_EDGE('',*,*,#372,.T.);
#426=EDGE_LOOP('',(#425));
#427=FACE_BOUND('',#426,.T.);
#428=ADVANCED_FACE('',(#424,#427),#421,.F.);
#429=CARTESIAN_POINT('',(-7.378640666748716,8.689320394006453,0.0));
#430=DIRECTION('',(0.0,1.0,0.0));
#431=DIRECTION('',(0.0,0.0,1.0));
#432=AXIS2_PLACEMENT_3D('',#429,#430,#431);
#433=PLANE('',#432);
#434=CARTESIAN_POINT('',(-4.733735956121741,8.689320394006455,15.0));
#435=VERTEX_POINT('',#434);
#436=CARTESIAN_POINT('',(19.976454622624303,8.689320394006453,15.0));
#437=VERTEX_POINT('',#436);
#438=CARTESIAN_POINT('',(-4.73373595612174,8.689320394006453,15.0));
#439=DIRECTION('',(1.0,0.0,0.0));
#440=VECTOR('',#439,24.710190578746044);
#441=LINE('',#438,#440);
#442=EDGE_CURVE('',#435,#437,#441,.T.);
#443=ORIENTED_EDGE('',*,*,#442,.T.);
#444=CARTESIAN_POINT('',(22.621359333251281,8.689320394006453,-4.440892E-016));
#445=DIRECTION('',(-0.173648177666931,0.0,0.984807753012208));
#446=VECTOR('',#445,15.231399178286175);
#447=LINE('',#444,#446);
#448=EDGE_CURVE('',#283,#437,#447,.T.);
#449=ORIENTED_EDGE('',*,*,#448,.F.);
#450=ORIENTED_EDGE('',*,*,#288,.F.);
#451=CARTESIAN_POINT('',(-4.733735956121739,8.689320394006455,15.000000000000002));
#452=DIRECTION('',(-0.17364817766693,0.0,-0.984807753012208));
#453=VECTOR('',#452,15.231399178286177);
#454=LINE('',#451,#453);
#455=EDGE_CURVE('',#281,#435,#454,.F.);
#456=ORIENTED_EDGE('',*,*,#455,.T.);
#457=EDGE_LOOP('',(#443,#449,#450,#456));
#458=FACE_OUTER_BOUND('',#457,.T.);
#459=ADVANCED_FACE('',(#458),#433,.T.);
#460=CARTESIAN_POINT('',(7.621359333251281,-1.310679605993546,0.0));
#461=DIRECTION('',(0.0,0.0,1.0));
#462=DIRECTION('',(1.0,0.0,0.0));
#463=AXIS2_PLACEMENT_3D('',#460,#461,#462);
#464=PLANE('',#463);
#465=ORIENTED_EDGE('',*,*,#119,.T.);
#466=EDGE_LOOP('',(#465));
#467=FACE_OUTER_BOUND('',#466,.T.);
#468=ORIENTED_EDGE('',*,*,#344,.T.);
#469=EDGE_LOOP('',(#468));
#470=FACE_BOUND('',#469,.T.);
#471=ADVANCED_FACE('',(#467,#470),#464,.F.);
#472=CARTESIAN_POINT('',(22.621359333251281,-11.310679605993544,0.0));
#473=DIRECTION('',(0.0,-1.0,0.0));
#474=DIRECTION('',(0.0,0.0,-1.0));
#475=AXIS2_PLACEMENT_3D('',#472,#473,#474);
#476=PLANE('',#475);
#477=CARTESIAN_POINT('',(19.976454622624306,-11.310679605993544,15.0));
#478=VERTEX_POINT('',#477);
#479=CARTESIAN_POINT('',(-4.733735956121739,-11.310679605993545,15.0));
#480=VERTEX_POINT('',#479);
#481=CARTESIAN_POINT('',(19.976454622624306,-11.310679605993544,15.0));
#482=DIRECTION('',(-1.0,0.0,0.0));
#483=VECTOR('',#482,24.710190578746044);
#484=LINE('',#481,#483);
#485=EDGE_CURVE('',#478,#480,#484,.T.);
#486=ORIENTED_EDGE('',*,*,#485,.T.);
#487=CARTESIAN_POINT('',(-7.378640666748714,-11.310679605993545,-4.440892E-016));
#488=DIRECTION('',(0.17364817766693,0.0,0.984807753012208));
#489=VECTOR('',#488,15.231399178286175);
#490=LINE('',#487,#489);
#491=EDGE_CURVE('',#299,#480,#490,.T.);
#492=ORIENTED_EDGE('',*,*,#491,.F.);
#493=ORIENTED_EDGE('',*,*,#304,.F.);
#494=CARTESIAN_POINT('',(19.976454622624306,-11.310679605993544,15.000000000000002));
#495=DIRECTION('',(0.17364817766693,0.0,-0.984807753012208));
#496=VECTOR('',#495,15.231399178286177);
#497=LINE('',#494,#496);
#498=EDGE_CURVE('',#291,#478,#497,.F.);
#499=ORIENTED_EDGE('',*,*,#498,.T.);
#500=EDGE_LOOP('',(#486,#492,#493,#499));
#501=FACE_OUTER_BOUND('',#500,.T.);
#502=ADVANCED_FACE('',(#501),#476,.T.);
#503=CARTESIAN_POINT('',(7.62135933325128,-1.310679605993545,15.0));
#504=DIRECTION('',(0.0,0.0,1.0));
#505=DIRECTION('',(1.0,0.0,0.0));
#506=AXIS2_PLACEMENT_3D('',#503,#504,#505);
#507=PLANE('',#506);
#508=CARTESIAN_POINT('',(19.976454622624306,8.689320394006453,15.0));
#509=DIRECTION('',(0.0,-1.0,0.0));
#510=VECTOR('',#509,19.999999999999996);
#511=LINE('',#508,#510);
#512=EDGE_CURVE('',#437,#478,#511,.T.);
#513=ORIENTED_EDGE('',*,*,#512,.F.);
#514=ORIENTED_EDGE('',*,*,#442,.F.);
#515=CARTESIAN_POINT('',(-4.733735956121739,-11.310679605993545,15.0));
#516=DIRECTION('',(0.0,1.0,0.0));
#517=VECTOR('',#516,20.0);
#518=LINE('',#515,#517);
#519=EDGE_CURVE('',#480,#435,#518,.T.);
#520=ORIENTED_EDGE('',*,*,#519,.F.);
#521=ORIENTED_EDGE('',*,*,#485,.F.);
#522=EDGE_LOOP('',(#513,#514,#520,#521));
#523=FACE_OUTER_BOUND('',#522,.T.);
#524=ORIENTED_EDGE('',*,*,#412,.T.);
#525=EDGE_LOOP('',(#524));
#526=FACE_BOUND('',#525,.T.);
#527=ADVANCED_FACE('',(#523,#526),#507,.T.);
#528=CARTESIAN_POINT('',(22.621359333251281,8.689320394006453,0.0));
#529=DIRECTION('',(0.984807753012208,0.0,0.17364817766693));
#530=DIRECTION('',(0.17364817766693,0.0,-0.984807753012208));
#531=AXIS2_PLACEMENT_3D('',#528,#529,#530);
#532=PLANE('',#531);
#533=ORIENTED_EDGE('',*,*,#512,.T.);
#534=ORIENTED_EDGE('',*,*,#498,.F.);
#535=ORIENTED_EDGE('',*,*,#296,.F.);
#536=ORIENTED_EDGE('',*,*,#448,.T.);
#537=EDGE_LOOP('',(#533,#534,#535,#536));
#538=FACE_OUTER_BOUND('',#537,.T.);
#539=ADVANCED_FACE('',(#538),#532,.T.);
#540=CARTESIAN_POINT('',(-7.378640666748715,-11.310679605993545,0.0));
#541=DIRECTION('',(-0.984807753012208,-5.466781E-017,0.17364817766693));
#542=DIRECTION('',(0.17364817766693,9.639410E-018,0.984807753012208));
#543=AXIS2_PLACEMENT_3D('',#540,#541,#542);
#544=PLANE('',#543);
#545=ORIENTED_EDGE('',*,*,#519,.T.);
#546=ORIENTED_EDGE('',*,*,#455,.F.);
#547=ORIENTED_EDGE('',*,*,#310,.F.);
#548=ORIENTED_EDGE('',*,*,#491,.T.);
#549=EDGE_LOOP('',(#545,#546,#547,#548));
#550=FACE_OUTER_BOUND('',#549,.T.);
#551=ADVANCED_FACE('',(#550),#544,.T.);
#552=CLOSED_SHELL('',(#95,#123,#163,#194,#225,#247,#259,#274,#320,#348,#376,#388,#416,#428,#459,#471,#502,#527,#539,#551));
#553=MANIFOLD_SOLID_BREP('Volumenk\S\vrper1',#552);
#554=COLOUR_RGB('Standard',0.752941191196442,0.752941191196442,0.752941191196442);
#555=FILL_AREA_STYLE_COLOUR('Standard',#554);
#556=FILL_AREA_STYLE('Standard',(#555));
#557=SURFACE_STYLE_FILL_AREA(#556);
#558=SURFACE_SIDE_STYLE('Standard',(#557));
#559=SURFACE_STYLE_USAGE(.BOTH.,#558);
#560=PRESENTATION_STYLE_ASSIGNMENT((#559));
#561=STYLED_ITEM('',(#560),#553);
#562=MECHANICAL_DESIGN_GEOMETRIC_PRESENTATION_REPRESENTATION('',(#561),#36);
#563=ADVANCED_BREP_SHAPE_REPRESENTATION('ABSR',(#553),#36);
#564=SHAPE_REPRESENTATION_RELATIONSHIP('SRR','None',#563,#41);
ENDSEC;
END-ISO-10303-21;
