ISO-10303-21;
HEADER;
/****************************************************************
 * Generated by software with PDElib inside                    *
 * PDElib Version v51a, created Wed 07/06/2011                  *
 * ITI Transcendata (http://www.transcendata.com/)              *
 ****************************************************************/
FILE_DESCRIPTION((''),'2;1');
FILE_NAME('S:\\3. Leistungserbringung\\3.10 Produkteentwicklung\\3.10.05 Produktentwicklung\\CAD\\Konstruktion\\06 Lube\\6_21 Verkaufsteile\\Step\\1020_Reduziernippel_1_8.stp','2011-10-05T08:20:39',('pascalzweiacker'),(''),'Autodesk Inventor 2012','Autodesk Inventor 2012','');
FILE_SCHEMA(('AUTOMOTIVE_DESIGN { 1 0 10303 214 1 1 1 1 }'));
ENDSEC;
DATA;
#5=APPLICATION_CONTEXT('automotive design');
#6=APPLICATION_PROTOCOL_DEFINITION('International Standard','automotive_design',2001,#5);
#7=PRODUCT_CONTEXT('',#5,'mechanical');
#8=PRODUCT('1020_Reduziernippel_1_8','1020_Reduziernippel_1_8',$,(#7));
#9=PRODUCT_RELATED_PRODUCT_CATEGORY('part',$,(#8));
#10=PRODUCT_DEFINITION_FORMATION('',$,#8);
#11=PRODUCT_DEFINITION_CONTEXT('part definition',#5,'design');
#12=PRODUCT_DEFINITION('',$,#10,#11);
#18=(NAMED_UNIT(*)PLANE_ANGLE_UNIT()SI_UNIT($,.RADIAN.));
#19=DIMENSIONAL_EXPONENTS(0.0,0.0,0.0,0.0,0.0,0.0,0.0);
#20=PLANE_ANGLE_MEASURE_WITH_UNIT(PLANE_ANGLE_MEASURE(0.0174532925),#18);
#24=(CONVERSION_BASED_UNIT('DEGREE',#20)NAMED_UNIT(#19)PLANE_ANGLE_UNIT());
#28=(NAMED_UNIT(*)SI_UNIT($,.STERADIAN.)SOLID_ANGLE_UNIT());
#32=(LENGTH_UNIT()NAMED_UNIT(*)SI_UNIT(.MILLI.,.METRE.));
#34=UNCERTAINTY_MEASURE_WITH_UNIT(LENGTH_MEASURE(0.01),#32,'DISTANCE_ACCURACY_VALUE','');
#36=(GEOMETRIC_REPRESENTATION_CONTEXT(3)GLOBAL_UNCERTAINTY_ASSIGNED_CONTEXT((#34))GLOBAL_UNIT_ASSIGNED_CONTEXT((#24,#28,#32))REPRESENTATION_CONTEXT('None','None'));
#37=AXIS2_PLACEMENT_3D('',#38,#39,#40);
#38=CARTESIAN_POINT('',(0.0,0.0,0.0));
#39=DIRECTION('',(0.0,0.0,1.0));
#40=DIRECTION('',(1.0,0.0,0.0));
#41=SHAPE_REPRESENTATION('',(#37),#36);
#42=PRODUCT_DEFINITION_SHAPE('','',#12);
#43=SHAPE_DEFINITION_REPRESENTATION(#42,#41);
#49=(NAMED_UNIT(*)PLANE_ANGLE_UNIT()SI_UNIT($,.RADIAN.));
#50=DIMENSIONAL_EXPONENTS(0.0,0.0,0.0,0.0,0.0,0.0,0.0);
#51=PLANE_ANGLE_MEASURE_WITH_UNIT(PLANE_ANGLE_MEASURE(0.0174532925),#49);
#55=(CONVERSION_BASED_UNIT('DEGREE',#51)NAMED_UNIT(#50)PLANE_ANGLE_UNIT());
#59=(NAMED_UNIT(*)SI_UNIT($,.STERADIAN.)SOLID_ANGLE_UNIT());
#63=(LENGTH_UNIT()NAMED_UNIT(*)SI_UNIT(.MILLI.,.METRE.));
#65=UNCERTAINTY_MEASURE_WITH_UNIT(LENGTH_MEASURE(0.000001),#63,'DISTANCE_ACCURACY_VALUE','');
#67=(GEOMETRIC_REPRESENTATION_CONTEXT(3)GLOBAL_UNCERTAINTY_ASSIGNED_CONTEXT((#65))GLOBAL_UNIT_ASSIGNED_CONTEXT((#55,#59,#63))REPRESENTATION_CONTEXT('','3D'));
#68=CARTESIAN_POINT('',(19.25,0.0,0.0));
#69=DIRECTION('',(1.0,0.0,0.0));
#70=DIRECTION('',(0.0,0.0,1.0));
#71=AXIS2_PLACEMENT_3D('',#68,#69,#70);
#72=CONICAL_SURFACE('',#71,5.9725,44.999999999999993);
#73=CARTESIAN_POINT('',(18.999999999999996,-7.007810E-016,-5.7225));
#74=VERTEX_POINT('',#73);
#75=CARTESIAN_POINT('',(18.999999999999996,0.0,0.0));
#76=DIRECTION('',(-1.0,0.0,0.0));
#77=DIRECTION('',(0.0,0.0,1.0));
#78=AXIS2_PLACEMENT_3D('',#75,#76,#77);
#79=CIRCLE('',#78,5.7225);
#80=EDGE_CURVE('',#74,#74,#79,.T.);
#81=ORIENTED_EDGE('',*,*,#80,.T.);
#82=EDGE_LOOP('',(#81));
#83=FACE_OUTER_BOUND('',#82,.T.);
#84=CARTESIAN_POINT('',(19.499999999999996,7.620113E-016,-6.222500000000001));
#85=VERTEX_POINT('',#84);
#86=CARTESIAN_POINT('',(19.499999999999996,0.0,0.0));
#87=DIRECTION('',(1.0,0.0,0.0));
#88=DIRECTION('',(0.0,0.0,1.0));
#89=AXIS2_PLACEMENT_3D('',#86,#87,#88);
#90=CIRCLE('',#89,6.222500000000001);
#91=EDGE_CURVE('',#85,#85,#90,.T.);
#92=ORIENTED_EDGE('',*,*,#91,.T.);
#93=EDGE_LOOP('',(#92));
#94=FACE_BOUND('',#93,.T.);
#95=ADVANCED_FACE('',(#83,#94),#72,.F.);
#96=CARTESIAN_POINT('',(13.999999999999996,0.0,0.0));
#97=DIRECTION('',(1.0,0.0,0.0));
#98=DIRECTION('',(0.0,0.0,-1.0));
#99=AXIS2_PLACEMENT_3D('',#96,#97,#98);
#100=CYLINDRICAL_SURFACE('',#99,5.7225);
#101=CARTESIAN_POINT('',(8.499999999999996,0.0,-5.7225));
#102=VERTEX_POINT('',#101);
#103=CARTESIAN_POINT('',(8.499999999999996,0.0,0.0));
#104=DIRECTION('',(1.0,0.0,0.0));
#105=DIRECTION('',(0.0,0.0,-1.0));
#106=AXIS2_PLACEMENT_3D('',#103,#104,#105);
#107=CIRCLE('',#106,5.7225);
#108=EDGE_CURVE('',#102,#102,#107,.T.);
#109=ORIENTED_EDGE('',*,*,#108,.F.);
#110=EDGE_LOOP('',(#109));
#111=FACE_OUTER_BOUND('',#110,.T.);
#112=ORIENTED_EDGE('',*,*,#80,.F.);
#113=EDGE_LOOP('',(#112));
#114=FACE_BOUND('',#113,.T.);
#115=ADVANCED_FACE('',(#111,#114),#100,.F.);
#116=CARTESIAN_POINT('',(19.499999999999996,4.175,0.0));
#117=DIRECTION('',(1.0,0.0,0.0));
#118=DIRECTION('',(0.0,0.0,-1.0));
#119=AXIS2_PLACEMENT_3D('',#116,#117,#118);
#120=PLANE('',#119);
#121=CARTESIAN_POINT('',(19.499999999999996,8.35,0.0));
#122=VERTEX_POINT('',#121);
#123=CARTESIAN_POINT('',(19.499999999999996,0.0,0.0));
#124=DIRECTION('',(1.0,0.0,0.0));
#125=DIRECTION('',(0.0,1.0,0.0));
#126=AXIS2_PLACEMENT_3D('',#123,#124,#125);
#127=CIRCLE('',#126,8.35);
#128=EDGE_CURVE('',#122,#122,#127,.T.);
#129=ORIENTED_EDGE('',*,*,#128,.T.);
#130=EDGE_LOOP('',(#129));
#131=FACE_OUTER_BOUND('',#130,.T.);
#132=ORIENTED_EDGE('',*,*,#91,.F.);
#133=EDGE_LOOP('',(#132));
#134=FACE_BOUND('',#133,.T.);
#135=ADVANCED_FACE('',(#131,#134),#120,.T.);
#136=CARTESIAN_POINT('',(0.699999999999999,0.0,0.0));
#137=DIRECTION('',(1.0,0.0,0.0));
#138=DIRECTION('',(0.0,-1.0,0.0));
#139=AXIS2_PLACEMENT_3D('',#136,#137,#138);
#140=CONICAL_SURFACE('',#139,4.164,44.999999999999993);
#141=CARTESIAN_POINT('',(-8.326673E-016,3.464,4.242036E-016));
#142=VERTEX_POINT('',#141);
#143=CARTESIAN_POINT('',(-8.326673E-016,0.0,0.0));
#144=DIRECTION('',(1.0,0.0,0.0));
#145=DIRECTION('',(0.0,-1.0,0.0));
#146=AXIS2_PLACEMENT_3D('',#143,#144,#145);
#147=CIRCLE('',#146,3.464);
#148=EDGE_CURVE('',#142,#142,#147,.T.);
#149=ORIENTED_EDGE('',*,*,#148,.T.);
#150=EDGE_LOOP('',(#149));
#151=FACE_OUTER_BOUND('',#150,.T.);
#152=CARTESIAN_POINT('',(1.399999999999999,4.863999999999999,-5.956485E-016));
#153=VERTEX_POINT('',#152);
#154=CARTESIAN_POINT('',(1.399999999999999,0.0,0.0));
#155=DIRECTION('',(-1.0,0.0,0.0));
#156=DIRECTION('',(0.0,-1.0,0.0));
#157=AXIS2_PLACEMENT_3D('',#154,#155,#156);
#158=CIRCLE('',#157,4.863999999999999);
#159=EDGE_CURVE('',#153,#153,#158,.T.);
#160=ORIENTED_EDGE('',*,*,#159,.T.);
#161=EDGE_LOOP('',(#160));
#162=FACE_BOUND('',#161,.T.);
#163=ADVANCED_FACE('',(#151,#162),#140,.T.);
#164=CARTESIAN_POINT('',(-7.445607E-016,2.432,0.0));
#165=DIRECTION('',(-1.0,0.0,0.0));
#166=DIRECTION('',(0.0,0.0,1.0));
#167=AXIS2_PLACEMENT_3D('',#164,#165,#166);
#168=PLANE('',#167);
#169=ORIENTED_EDGE('',*,*,#148,.F.);
#170=EDGE_LOOP('',(#169));
#171=FACE_OUTER_BOUND('',#170,.T.);
#172=CARTESIAN_POINT('',(-7.445607E-016,0.0,2.65));
#173=VERTEX_POINT('',#172);
#174=CARTESIAN_POINT('',(0.0,0.0,0.0));
#175=DIRECTION('',(1.0,0.0,0.0));
#176=DIRECTION('',(0.0,0.0,1.0));
#177=AXIS2_PLACEMENT_3D('',#174,#175,#176);
#178=CIRCLE('',#177,2.65);
#179=EDGE_CURVE('',#173,#173,#178,.T.);
#180=ORIENTED_EDGE('',*,*,#179,.T.);
#181=EDGE_LOOP('',(#180));
#182=FACE_BOUND('',#181,.T.);
#183=ADVANCED_FACE('',(#171,#182),#168,.T.);
#184=CARTESIAN_POINT('',(2.999999999999999,0.0,0.0));
#185=DIRECTION('',(1.0,0.0,0.0));
#186=DIRECTION('',(0.0,1.0,0.0));
#187=AXIS2_PLACEMENT_3D('',#184,#185,#186);
#188=CYLINDRICAL_SURFACE('',#187,4.863999999999999);
#189=CARTESIAN_POINT('',(6.0,4.863999999999999,0.0));
#190=VERTEX_POINT('',#189);
#191=CARTESIAN_POINT('',(6.000000000000001,0.0,0.0));
#192=DIRECTION('',(1.0,0.0,0.0));
#193=DIRECTION('',(0.0,1.0,0.0));
#194=AXIS2_PLACEMENT_3D('',#191,#192,#193);
#195=CIRCLE('',#194,4.863999999999999);
#196=EDGE_CURVE('',#190,#190,#195,.T.);
#197=ORIENTED_EDGE('',*,*,#196,.F.);
#198=EDGE_LOOP('',(#197));
#199=FACE_OUTER_BOUND('',#198,.T.);
#200=ORIENTED_EDGE('',*,*,#159,.F.);
#201=EDGE_LOOP('',(#200));
#202=FACE_BOUND('',#201,.T.);
#203=ADVANCED_FACE('',(#199,#202),#188,.T.);
#204=CARTESIAN_POINT('',(32.474348851567981,0.0,0.0));
#205=DIRECTION('',(-1.0,0.0,0.0));
#206=DIRECTION('',(0.0,0.0,1.0));
#207=AXIS2_PLACEMENT_3D('',#204,#205,#206);
#208=CYLINDRICAL_SURFACE('',#207,2.65);
#209=CARTESIAN_POINT('',(6.653855748037816,-3.245207E-016,-2.65));
#210=VERTEX_POINT('',#209);
#211=CARTESIAN_POINT('',(6.653855748037816,0.0,0.0));
#212=DIRECTION('',(-1.0,0.0,0.0));
#213=DIRECTION('',(0.0,0.0,1.0));
#214=AXIS2_PLACEMENT_3D('',#211,#212,#213);
#215=CIRCLE('',#214,2.65);
#216=EDGE_CURVE('',#210,#210,#215,.T.);
#217=ORIENTED_EDGE('',*,*,#216,.F.);
#218=EDGE_LOOP('',(#217));
#219=FACE_OUTER_BOUND('',#218,.T.);
#220=ORIENTED_EDGE('',*,*,#179,.F.);
#221=EDGE_LOOP('',(#220));
#222=FACE_BOUND('',#221,.T.);
#223=ADVANCED_FACE('',(#219,#222),#208,.F.);
#224=CARTESIAN_POINT('',(6.78078755380739,0.0,0.0));
#225=DIRECTION('',(1.0,0.0,0.0));
#226=DIRECTION('',(0.0,0.0,-1.0));
#227=AXIS2_PLACEMENT_3D('',#224,#225,#226);
#228=CONICAL_SURFACE('',#227,2.86125,59.000000000000007);
#229=ORIENTED_EDGE('',*,*,#216,.T.);
#230=EDGE_LOOP('',(#229));
#231=FACE_OUTER_BOUND('',#230,.T.);
#232=ORIENTED_EDGE('',*,*,#108,.T.);
#233=EDGE_LOOP('',(#232));
#234=FACE_BOUND('',#233,.T.);
#235=ADVANCED_FACE('',(#231,#234),#228,.F.);
#236=CARTESIAN_POINT('',(19.499999999999996,-1.708703E-015,9.814954576223647));
#237=DIRECTION('',(0.0,-0.5,0.866025403784439));
#238=DIRECTION('',(1.0,0.0,0.0));
#239=AXIS2_PLACEMENT_3D('',#236,#237,#238);
#240=PLANE('',#239);
#241=CARTESIAN_POINT('',(8.450417228136049,-8.500000000000007,4.907477288111823));
#242=VERTEX_POINT('',#241);
#243=CARTESIAN_POINT('',(8.450417228136049,-1.708703E-015,9.814954576223647));
#244=VERTEX_POINT('',#243);
#245=CARTESIAN_POINT('',(8.450417228136049,-8.500000000000007,4.907477288111823));
#246=CARTESIAN_POINT('',(7.792939940024275,-4.250000000000014,7.361215932167731));
#247=CARTESIAN_POINT('',(8.450417228136049,-1.708703E-015,9.814954576223647));
#255=(BOUNDED_CURVE()B_SPLINE_CURVE(2,(#245,#246,#247),.UNSPECIFIED.,.F.,.U.)B_SPLINE_CURVE_WITH_KNOTS((3,3),(0.031167004656346,1.02546051215135),.UNSPECIFIED.)CURVE()GEOMETRIC_REPRESENTATION_ITEM()RATIONAL_B_SPLINE_CURVE((1.01010351529983,1.166367072935468,1.01010351529983))REPRESENTATION_ITEM(''));
#256=EDGE_CURVE('',#242,#244,#255,.T.);
#257=ORIENTED_EDGE('',*,*,#256,.F.);
#258=CARTESIAN_POINT('',(17.049582771863946,-8.500000000000007,4.907477288111823));
#259=VERTEX_POINT('',#258);
#260=CARTESIAN_POINT('',(17.049582771863943,-8.500000000000007,4.907477288111823));
#261=DIRECTION('',(-1.0,0.0,0.0));
#262=VECTOR('',#261,8.599165543727896);
#263=LINE('',#260,#262);
#264=EDGE_CURVE('',#259,#242,#263,.T.);
#265=ORIENTED_EDGE('',*,*,#264,.F.);
#266=CARTESIAN_POINT('',(17.049582771863946,-1.708703E-015,9.814954576223647));
#267=VERTEX_POINT('',#266);
#268=CARTESIAN_POINT('',(17.049582771863946,-1.708703E-015,9.814954576223647));
#269=CARTESIAN_POINT('',(17.707060059975724,-4.249999999999997,7.361215932167739));
#270=CARTESIAN_POINT('',(17.049582771863946,-8.500000000000007,4.907477288111823));
#278=(BOUNDED_CURVE()B_SPLINE_CURVE(2,(#268,#269,#270),.UNSPECIFIED.,.F.,.U.)B_SPLINE_CURVE_WITH_KNOTS((3,3),(0.031167004656346,1.02546051215135),.UNSPECIFIED.)CURVE()GEOMETRIC_REPRESENTATION_ITEM()RATIONAL_B_SPLINE_CURVE((1.01010351529983,1.166367072935463,1.01010351529983))REPRESENTATION_ITEM(''));
#279=EDGE_CURVE('',#267,#259,#278,.T.);
#280=ORIENTED_EDGE('',*,*,#279,.F.);
#281=CARTESIAN_POINT('',(17.049582771863943,-1.708703E-015,9.814954576223647));
#282=DIRECTION('',(-1.0,0.0,0.0));
#283=VECTOR('',#282,8.599165543727896);
#284=LINE('',#281,#283);
#285=EDGE_CURVE('',#267,#244,#284,.T.);
#286=ORIENTED_EDGE('',*,*,#285,.T.);
#287=EDGE_LOOP('',(#257,#265,#280,#286));
#288=FACE_OUTER_BOUND('',#287,.T.);
#289=ADVANCED_FACE('',(#288),#240,.T.);
#290=CARTESIAN_POINT('',(19.499999999999996,8.500000000000007,4.907477288111826));
#291=DIRECTION('',(0.0,0.5,0.866025403784439));
#292=DIRECTION('',(1.0,0.0,0.0));
#293=AXIS2_PLACEMENT_3D('',#290,#291,#292);
#294=PLANE('',#293);
#295=CARTESIAN_POINT('',(8.450417228136049,8.500000000000007,4.907477288111827));
#296=VERTEX_POINT('',#295);
#297=CARTESIAN_POINT('',(8.450417228136049,-1.708703E-015,9.814954576223647));
#298=CARTESIAN_POINT('',(7.792939940024277,4.249999999999992,7.361215932167743));
#299=CARTESIAN_POINT('',(8.450417228136049,8.500000000000007,4.907477288111827));
#307=(BOUNDED_CURVE()B_SPLINE_CURVE(2,(#297,#298,#299),.UNSPECIFIED.,.F.,.U.)B_SPLINE_CURVE_WITH_KNOTS((3,3),(0.031167004656346,1.02546051215135),.UNSPECIFIED.)CURVE()GEOMETRIC_REPRESENTATION_ITEM()RATIONAL_B_SPLINE_CURVE((1.01010351529983,1.166367072935461,1.01010351529983))REPRESENTATION_ITEM(''));
#308=EDGE_CURVE('',#244,#296,#307,.T.);
#309=ORIENTED_EDGE('',*,*,#308,.F.);
#310=ORIENTED_EDGE('',*,*,#285,.F.);
#311=CARTESIAN_POINT('',(17.049582771863946,8.500000000000007,4.907477288111827));
#312=VERTEX_POINT('',#311);
#313=CARTESIAN_POINT('',(17.049582771863946,8.500000000000007,4.907477288111827));
#314=CARTESIAN_POINT('',(17.707060059975724,4.250000000000011,7.361215932167732));
#315=CARTESIAN_POINT('',(17.049582771863946,-1.708703E-015,9.814954576223647));
#323=(BOUNDED_CURVE()B_SPLINE_CURVE(2,(#313,#314,#315),.UNSPECIFIED.,.F.,.U.)B_SPLINE_CURVE_WITH_KNOTS((3,3),(0.031167004656345,1.02546051215135),.UNSPECIFIED.)CURVE()GEOMETRIC_REPRESENTATION_ITEM()RATIONAL_B_SPLINE_CURVE((1.01010351529983,1.166367072935463,1.01010351529983))REPRESENTATION_ITEM(''));
#324=EDGE_CURVE('',#312,#267,#323,.T.);
#325=ORIENTED_EDGE('',*,*,#324,.F.);
#326=CARTESIAN_POINT('',(17.049582771863943,8.500000000000007,4.907477288111826));
#327=DIRECTION('',(-1.0,0.0,0.0));
#328=VECTOR('',#327,8.599165543727896);
#329=LINE('',#326,#328);
#330=EDGE_CURVE('',#312,#296,#329,.T.);
#331=ORIENTED_EDGE('',*,*,#330,.T.);
#332=EDGE_LOOP('',(#309,#310,#325,#331));
#333=FACE_OUTER_BOUND('',#332,.T.);
#334=ADVANCED_FACE('',(#333),#294,.T.);
#335=CARTESIAN_POINT('',(19.499999999999996,8.500000000000011,-4.907477288111821));
#336=DIRECTION('',(0.0,1.0,0.0));
#337=DIRECTION('',(0.0,0.0,1.0));
#338=AXIS2_PLACEMENT_3D('',#335,#336,#337);
#339=PLANE('',#338);
#340=CARTESIAN_POINT('',(8.450417228136049,8.500000000000011,-4.907477288111821));
#341=VERTEX_POINT('',#340);
#342=CARTESIAN_POINT('',(8.450417228136049,8.500000000000007,4.907477288111827));
#343=CARTESIAN_POINT('',(7.792939940024277,8.500000000000009,1.419004E-014));
#344=CARTESIAN_POINT('',(8.450417228136049,8.500000000000011,-4.907477288111821));
#352=(BOUNDED_CURVE()B_SPLINE_CURVE(2,(#342,#343,#344),.UNSPECIFIED.,.F.,.U.)B_SPLINE_CURVE_WITH_KNOTS((3,3),(0.031167004656346,1.02546051215135),.UNSPECIFIED.)CURVE()GEOMETRIC_REPRESENTATION_ITEM()RATIONAL_B_SPLINE_CURVE((1.01010351529983,1.166367072935458,1.01010351529983))REPRESENTATION_ITEM(''));
#353=EDGE_CURVE('',#296,#341,#352,.T.);
#354=ORIENTED_EDGE('',*,*,#353,.F.);
#355=ORIENTED_EDGE('',*,*,#330,.F.);
#356=CARTESIAN_POINT('',(17.049582771863946,8.500000000000011,-4.907477288111821));
#357=VERTEX_POINT('',#356);
#358=CARTESIAN_POINT('',(17.049582771863946,8.500000000000011,-4.907477288111821));
#359=CARTESIAN_POINT('',(17.707060059975724,8.500000000000009,-7.164408E-015));
#360=CARTESIAN_POINT('',(17.049582771863946,8.500000000000007,4.907477288111827));
#368=(BOUNDED_CURVE()B_SPLINE_CURVE(2,(#358,#359,#360),.UNSPECIFIED.,.F.,.U.)B_SPLINE_CURVE_WITH_KNOTS((3,3),(0.031167004656346,1.02546051215135),.UNSPECIFIED.)CURVE()GEOMETRIC_REPRESENTATION_ITEM()RATIONAL_B_SPLINE_CURVE((1.01010351529983,1.166367072935463,1.01010351529983))REPRESENTATION_ITEM(''));
#369=EDGE_CURVE('',#357,#312,#368,.T.);
#370=ORIENTED_EDGE('',*,*,#369,.F.);
#371=CARTESIAN_POINT('',(17.049582771863943,8.500000000000011,-4.907477288111821));
#372=DIRECTION('',(-1.0,0.0,0.0));
#373=VECTOR('',#372,8.599165543727894);
#374=LINE('',#371,#373);
#375=EDGE_CURVE('',#357,#341,#374,.T.);
#376=ORIENTED_EDGE('',*,*,#375,.T.);
#377=EDGE_LOOP('',(#354,#355,#370,#376));
#378=FACE_OUTER_BOUND('',#377,.T.);
#379=ADVANCED_FACE('',(#378),#339,.T.);
#380=CARTESIAN_POINT('',(19.499999999999996,-3.001072E-015,-9.814954576223645));
#381=DIRECTION('',(0.0,0.5,-0.866025403784439));
#382=DIRECTION('',(-1.0,0.0,0.0));
#383=AXIS2_PLACEMENT_3D('',#380,#381,#382);
#384=PLANE('',#383);
#385=CARTESIAN_POINT('',(8.450417228136049,-3.001072E-015,-9.814954576223645));
#386=VERTEX_POINT('',#385);
#387=CARTESIAN_POINT('',(8.450417228136049,8.500000000000011,-4.907477288111821));
#388=CARTESIAN_POINT('',(7.792939940024275,4.250000000000013,-7.36121593216773));
#389=CARTESIAN_POINT('',(8.450417228136049,-3.001072E-015,-9.814954576223645));
#397=(BOUNDED_CURVE()B_SPLINE_CURVE(2,(#387,#388,#389),.UNSPECIFIED.,.F.,.U.)B_SPLINE_CURVE_WITH_KNOTS((3,3),(0.031167004656345,1.02546051215135),.UNSPECIFIED.)CURVE()GEOMETRIC_REPRESENTATION_ITEM()RATIONAL_B_SPLINE_CURVE((1.01010351529983,1.166367072935468,1.01010351529983))REPRESENTATION_ITEM(''));
#398=EDGE_CURVE('',#341,#386,#397,.T.);
#399=ORIENTED_EDGE('',*,*,#398,.F.);
#400=ORIENTED_EDGE('',*,*,#375,.F.);
#401=CARTESIAN_POINT('',(17.049582771863946,-3.001072E-015,-9.814954576223645));
#402=VERTEX_POINT('',#401);
#403=CARTESIAN_POINT('',(17.049582771863946,-3.001072E-015,-9.814954576223645));
#404=CARTESIAN_POINT('',(17.707060059975724,4.249999999999995,-7.361215932167739));
#405=CARTESIAN_POINT('',(17.049582771863946,8.500000000000011,-4.907477288111821));
#413=(BOUNDED_CURVE()B_SPLINE_CURVE(2,(#403,#404,#405),.UNSPECIFIED.,.F.,.U.)B_SPLINE_CURVE_WITH_KNOTS((3,3),(0.031167004656345,1.02546051215135),.UNSPECIFIED.)CURVE()GEOMETRIC_REPRESENTATION_ITEM()RATIONAL_B_SPLINE_CURVE((1.01010351529983,1.166367072935464,1.01010351529983))REPRESENTATION_ITEM(''));
#414=EDGE_CURVE('',#402,#357,#413,.T.);
#415=ORIENTED_EDGE('',*,*,#414,.F.);
#416=CARTESIAN_POINT('',(17.049582771863943,-3.001072E-015,-9.814954576223645));
#417=DIRECTION('',(-1.0,0.0,0.0));
#418=VECTOR('',#417,8.599165543727896);
#419=LINE('',#416,#418);
#420=EDGE_CURVE('',#402,#386,#419,.T.);
#421=ORIENTED_EDGE('',*,*,#420,.T.);
#422=EDGE_LOOP('',(#399,#400,#415,#421));
#423=FACE_OUTER_BOUND('',#422,.T.);
#424=ADVANCED_FACE('',(#423),#384,.T.);
#425=CARTESIAN_POINT('',(19.499999999999996,-8.500000000000007,4.907477288111823));
#426=DIRECTION('',(0.0,-1.0,0.0));
#427=DIRECTION('',(0.0,0.0,-1.0));
#428=AXIS2_PLACEMENT_3D('',#425,#426,#427);
#429=PLANE('',#428);
#430=CARTESIAN_POINT('',(8.450417228136047,-8.500000000000007,-4.907477288111821));
#431=VERTEX_POINT('',#430);
#432=CARTESIAN_POINT('',(8.450417228136047,-8.500000000000007,-4.907477288111821));
#433=CARTESIAN_POINT('',(7.792939940024277,-8.500000000000007,-8.881784E-015));
#434=CARTESIAN_POINT('',(8.450417228136049,-8.500000000000007,4.907477288111823));
#442=(BOUNDED_CURVE()B_SPLINE_CURVE(2,(#432,#433,#434),.UNSPECIFIED.,.F.,.U.)B_SPLINE_CURVE_WITH_KNOTS((3,3),(0.031167004656346,1.02546051215135),.UNSPECIFIED.)CURVE()GEOMETRIC_REPRESENTATION_ITEM()RATIONAL_B_SPLINE_CURVE((1.01010351529983,1.166367072935461,1.01010351529983))REPRESENTATION_ITEM(''));
#443=EDGE_CURVE('',#431,#242,#442,.T.);
#444=ORIENTED_EDGE('',*,*,#443,.F.);
#445=CARTESIAN_POINT('',(17.049582771863946,-8.500000000000007,-4.907477288111821));
#446=VERTEX_POINT('',#445);
#447=CARTESIAN_POINT('',(17.049582771863943,-8.500000000000007,-4.907477288111821));
#448=DIRECTION('',(-1.0,0.0,0.0));
#449=VECTOR('',#448,8.599165543727896);
#450=LINE('',#447,#449);
#451=EDGE_CURVE('',#446,#431,#450,.T.);
#452=ORIENTED_EDGE('',*,*,#451,.F.);
#453=CARTESIAN_POINT('',(17.049582771863946,-8.500000000000007,4.907477288111823));
#454=CARTESIAN_POINT('',(17.707060059975724,-8.500000000000007,1.190020E-014));
#455=CARTESIAN_POINT('',(17.049582771863946,-8.500000000000007,-4.907477288111821));
#463=(BOUNDED_CURVE()B_SPLINE_CURVE(2,(#453,#454,#455),.UNSPECIFIED.,.F.,.U.)B_SPLINE_CURVE_WITH_KNOTS((3,3),(0.031167004656346,1.025460512151349),.UNSPECIFIED.)CURVE()GEOMETRIC_REPRESENTATION_ITEM()RATIONAL_B_SPLINE_CURVE((1.01010351529983,1.166367072935463,1.01010351529983))REPRESENTATION_ITEM(''));
#464=EDGE_CURVE('',#259,#446,#463,.T.);
#465=ORIENTED_EDGE('',*,*,#464,.F.);
#466=ORIENTED_EDGE('',*,*,#264,.T.);
#467=EDGE_LOOP('',(#444,#452,#465,#466));
#468=FACE_OUTER_BOUND('',#467,.T.);
#469=ADVANCED_FACE('',(#468),#429,.T.);
#470=CARTESIAN_POINT('',(19.499999999999996,-8.500000000000007,-4.907477288111821));
#471=DIRECTION('',(0.0,-0.5,-0.866025403784438));
#472=DIRECTION('',(-1.0,0.0,0.0));
#473=AXIS2_PLACEMENT_3D('',#470,#471,#472);
#474=PLANE('',#473);
#475=CARTESIAN_POINT('',(8.450417228136049,-3.001072E-015,-9.814954576223645));
#476=CARTESIAN_POINT('',(7.792939940024275,-4.249999999999996,-7.361215932167739));
#477=CARTESIAN_POINT('',(8.450417228136047,-8.500000000000007,-4.907477288111821));
#485=(BOUNDED_CURVE()B_SPLINE_CURVE(2,(#475,#476,#477),.UNSPECIFIED.,.F.,.U.)B_SPLINE_CURVE_WITH_KNOTS((3,3),(0.031167004656345,1.025460512151349),.UNSPECIFIED.)CURVE()GEOMETRIC_REPRESENTATION_ITEM()RATIONAL_B_SPLINE_CURVE((1.01010351529983,1.166367072935465,1.01010351529983))REPRESENTATION_ITEM(''));
#486=EDGE_CURVE('',#386,#431,#485,.T.);
#487=ORIENTED_EDGE('',*,*,#486,.F.);
#488=ORIENTED_EDGE('',*,*,#420,.F.);
#489=CARTESIAN_POINT('',(17.049582771863946,-8.500000000000007,-4.907477288111821));
#490=CARTESIAN_POINT('',(17.707060059975724,-4.250000000000016,-7.361215932167728));
#491=CARTESIAN_POINT('',(17.049582771863946,-3.001072E-015,-9.814954576223645));
#499=(BOUNDED_CURVE()B_SPLINE_CURVE(2,(#489,#490,#491),.UNSPECIFIED.,.F.,.U.)B_SPLINE_CURVE_WITH_KNOTS((3,3),(0.031167004656346,1.025460512151349),.UNSPECIFIED.)CURVE()GEOMETRIC_REPRESENTATION_ITEM()RATIONAL_B_SPLINE_CURVE((1.01010351529983,1.166367072935463,1.01010351529983))REPRESENTATION_ITEM(''));
#500=EDGE_CURVE('',#446,#402,#499,.T.);
#501=ORIENTED_EDGE('',*,*,#500,.F.);
#502=ORIENTED_EDGE('',*,*,#451,.T.);
#503=EDGE_LOOP('',(#487,#488,#501,#502));
#504=FACE_OUTER_BOUND('',#503,.T.);
#505=ADVANCED_FACE('',(#504),#474,.T.);
#506=CARTESIAN_POINT('',(8.278941916244323,0.0,0.0));
#507=DIRECTION('',(1.0,0.0,0.0));
#508=DIRECTION('',(0.0,1.0,0.0));
#509=AXIS2_PLACEMENT_3D('',#506,#507,#508);
#510=CONICAL_SURFACE('',#509,9.175000000000001,75.000000000000057);
#511=ORIENTED_EDGE('',*,*,#398,.T.);
#512=ORIENTED_EDGE('',*,*,#486,.T.);
#513=ORIENTED_EDGE('',*,*,#443,.T.);
#514=ORIENTED_EDGE('',*,*,#256,.T.);
#515=ORIENTED_EDGE('',*,*,#308,.T.);
#516=ORIENTED_EDGE('',*,*,#353,.T.);
#517=EDGE_LOOP('',(#511,#512,#513,#514,#515,#516));
#518=FACE_OUTER_BOUND('',#517,.T.);
#519=CARTESIAN_POINT('',(8.057883832488646,8.349999999999998,0.0));
#520=VERTEX_POINT('',#519);
#521=CARTESIAN_POINT('',(8.057883832488646,0.0,0.0));
#522=DIRECTION('',(-1.0,0.0,0.0));
#523=DIRECTION('',(0.0,1.0,0.0));
#524=AXIS2_PLACEMENT_3D('',#521,#522,#523);
#525=CIRCLE('',#524,8.349999999999998);
#526=EDGE_CURVE('',#520,#520,#525,.T.);
#527=ORIENTED_EDGE('',*,*,#526,.F.);
#528=EDGE_LOOP('',(#527));
#529=FACE_BOUND('',#528,.T.);
#530=ADVANCED_FACE('',(#518,#529),#510,.T.);
#531=CARTESIAN_POINT('',(6.000000000000001,4.174999999999999,0.0));
#532=DIRECTION('',(-1.0,0.0,0.0));
#533=DIRECTION('',(0.0,0.0,1.0));
#534=AXIS2_PLACEMENT_3D('',#531,#532,#533);
#535=PLANE('',#534);
#536=CARTESIAN_POINT('',(5.999999999999998,8.349999999999998,0.0));
#537=VERTEX_POINT('',#536);
#538=CARTESIAN_POINT('',(5.999999999999998,0.0,0.0));
#539=DIRECTION('',(1.0,0.0,0.0));
#540=DIRECTION('',(0.0,1.0,0.0));
#541=AXIS2_PLACEMENT_3D('',#538,#539,#540);
#542=CIRCLE('',#541,8.349999999999998);
#543=EDGE_CURVE('',#537,#537,#542,.T.);
#544=ORIENTED_EDGE('',*,*,#543,.F.);
#545=EDGE_LOOP('',(#544));
#546=FACE_OUTER_BOUND('',#545,.T.);
#547=ORIENTED_EDGE('',*,*,#196,.T.);
#548=EDGE_LOOP('',(#547));
#549=FACE_BOUND('',#548,.T.);
#550=ADVANCED_FACE('',(#546,#549),#535,.T.);
#551=CARTESIAN_POINT('',(7.249999999999998,0.0,0.0));
#552=DIRECTION('',(1.0,0.0,0.0));
#553=DIRECTION('',(0.0,1.0,0.0));
#554=AXIS2_PLACEMENT_3D('',#551,#552,#553);
#555=CYLINDRICAL_SURFACE('',#554,8.349999999999998);
#556=ORIENTED_EDGE('',*,*,#526,.T.);
#557=EDGE_LOOP('',(#556));
#558=FACE_OUTER_BOUND('',#557,.T.);
#559=ORIENTED_EDGE('',*,*,#543,.T.);
#560=EDGE_LOOP('',(#559));
#561=FACE_BOUND('',#560,.T.);
#562=ADVANCED_FACE('',(#558,#561),#555,.T.);
#563=CARTESIAN_POINT('',(18.471058083755672,0.0,0.0));
#564=DIRECTION('',(1.0,0.0,0.0));
#565=DIRECTION('',(0.0,1.0,0.0));
#566=AXIS2_PLACEMENT_3D('',#563,#564,#565);
#567=CYLINDRICAL_SURFACE('',#566,8.35);
#568=ORIENTED_EDGE('',*,*,#128,.F.);
#569=EDGE_LOOP('',(#568));
#570=FACE_OUTER_BOUND('',#569,.T.);
#571=CARTESIAN_POINT('',(17.442116167511351,8.35,0.0));
#572=VERTEX_POINT('',#571);
#573=CARTESIAN_POINT('',(17.442116167511351,0.0,0.0));
#574=DIRECTION('',(1.0,0.0,0.0));
#575=DIRECTION('',(0.0,1.0,0.0));
#576=AXIS2_PLACEMENT_3D('',#573,#574,#575);
#577=CIRCLE('',#576,8.35);
#578=EDGE_CURVE('',#572,#572,#577,.T.);
#579=ORIENTED_EDGE('',*,*,#578,.T.);
#580=EDGE_LOOP('',(#579));
#581=FACE_BOUND('',#580,.T.);
#582=ADVANCED_FACE('',(#570,#581),#567,.T.);
#583=CARTESIAN_POINT('',(17.221058083755672,0.0,0.0));
#584=DIRECTION('',(-1.0,0.0,0.0));
#585=DIRECTION('',(0.0,1.0,0.0));
#586=AXIS2_PLACEMENT_3D('',#583,#584,#585);
#587=CONICAL_SURFACE('',#586,9.175000000000001,74.999999999999943);
#588=ORIENTED_EDGE('',*,*,#414,.T.);
#589=ORIENTED_EDGE('',*,*,#369,.T.);
#590=ORIENTED_EDGE('',*,*,#324,.T.);
#591=ORIENTED_EDGE('',*,*,#279,.T.);
#592=ORIENTED_EDGE('',*,*,#464,.T.);
#593=ORIENTED_EDGE('',*,*,#500,.T.);
#594=EDGE_LOOP('',(#588,#589,#590,#591,#592,#593));
#595=FACE_OUTER_BOUND('',#594,.T.);
#596=ORIENTED_EDGE('',*,*,#578,.F.);
#597=EDGE_LOOP('',(#596));
#598=FACE_BOUND('',#597,.T.);
#599=ADVANCED_FACE('',(#595,#598),#587,.T.);
#600=CLOSED_SHELL('',(#95,#115,#135,#163,#183,#203,#223,#235,#289,#334,#379,#424,#469,#505,#530,#550,#562,#582,#599));
#601=MANIFOLD_SOLID_BREP('Volumenk\S\vrper1',#600);
#602=DRAUGHTING_PRE_DEFINED_COLOUR('black');
#603=FILL_AREA_STYLE_COLOUR('Nickel (gl\X2\FFFD\X0\nzend)',#602);
#604=FILL_AREA_STYLE('Nickel (gl\X2\FFFD\X0\nzend)',(#603));
#605=SURFACE_STYLE_FILL_AREA(#604);
#606=SURFACE_SIDE_STYLE('Nickel (gl\X2\FFFD\X0\nzend)',(#605));
#607=SURFACE_STYLE_USAGE(.BOTH.,#606);
#608=PRESENTATION_STYLE_ASSIGNMENT((#607));
#609=STYLED_ITEM('',(#608),#601);
#610=MECHANICAL_DESIGN_GEOMETRIC_PRESENTATION_REPRESENTATION('',(#609),#36);
#611=ADVANCED_BREP_SHAPE_REPRESENTATION('ABSR',(#601),#36);
#612=SHAPE_REPRESENTATION_RELATIONSHIP('SRR','None',#611,#41);
ENDSEC;
END-ISO-10303-21;
